ISO-10303-21;
HEADER;
FILE_DESCRIPTION (( 'STEP AP203' ),
    '1' );
FILE_NAME ('7173.STEP',
    '2022-07-07T17:19:28',
    ( '' ),
    ( '' ),
    'SwSTEP 2.0',
    'SolidWorks 2019',
    '' );
FILE_SCHEMA (( 'CONFIG_CONTROL_DESIGN' ));
ENDSEC;

DATA;
#1 = EDGE_CURVE ( 'NONE', #245, #145, #213, .T. ) ;
#2 = CALENDAR_DATE ( 2022, 7, 7 ) ;
#3 = DIRECTION ( 'NONE',  ( -0.000000000000000000, -0.000000000000000000, -1.000000000000000000 ) ) ;
#4 = APPROVAL ( #41, 'NEURÈENÝ' ) ;
#5 = LOCAL_TIME ( 19, 19, 28.00000000000000000, #79 ) ;
#6 = EDGE_LOOP ( 'NONE', ( #166, #159, #35, #8 ) ) ;
#7 = CIRCLE ( 'NONE', #58, 9.000000000000000000 ) ;
#8 = ORIENTED_EDGE ( 'NONE', *, *, #238, .F. ) ;
#9 = ADVANCED_FACE ( 'NONE', ( #180 ), #142, .F. ) ;
#10 = CC_DESIGN_APPROVAL ( #4, ( #118 ) ) ;
#11 = CARTESIAN_POINT ( 'NONE',  ( 0.000000000000000000, 0.000000000000000000, 407.0000000000000000 ) ) ;
#12 = EDGE_LOOP ( 'NONE', ( #94, #60 ) ) ;
#13 = DIRECTION ( 'NONE',  ( 0.000000000000000000, 0.000000000000000000, 1.000000000000000000 ) ) ;
#14 = EDGE_CURVE ( 'NONE', #145, #97, #248, .T. ) ;
#15 = CIRCLE ( 'NONE', #71, 6.000000000000000888 ) ;
#16 = AXIS2_PLACEMENT_3D ( 'NONE', #168, #84, #129 ) ;
#17 = CARTESIAN_POINT ( 'NONE',  ( 9.000000000000000000, 1.102182119232617714E-15, 0.000000000000000000 ) ) ;
#18 = CARTESIAN_POINT ( 'NONE',  ( 0.000000000000000000, 0.000000000000000000, 407.0000000000000000 ) ) ;
#19 = COORDINATED_UNIVERSAL_TIME_OFFSET ( 1, 0, .AHEAD. ) ;
#20 = DIRECTION ( 'NONE',  ( -1.000000000000000000, 0.000000000000000000, 0.000000000000000000 ) ) ;
#21 = ADVANCED_FACE ( 'NONE', ( #184 ), #62, .T. ) ;
#22 = DIRECTION ( 'NONE',  ( 0.000000000000000000, 0.000000000000000000, 1.000000000000000000 ) ) ;
#23 = APPLICATION_PROTOCOL_DEFINITION ( 'international standard', 'config_control_design', 1994, #31 ) ;
#24 = FACE_BOUND ( 'NONE', #140, .T. ) ;
#25 = PERSON_AND_ORGANIZATION ( #112, #45 ) ;
#26 = CIRCLE ( 'NONE', #216, 6.000000000000000888 ) ;
#27 = CARTESIAN_POINT ( 'NONE',  ( 0.000000000000000000, 0.000000000000000000, 0.000000000000000000 ) ) ;
#28 = ORIENTED_EDGE ( 'NONE', *, *, #1, .F. ) ;
#29 = ORIENTED_EDGE ( 'NONE', *, *, #175, .T. ) ;
#30 = FACE_OUTER_BOUND ( 'NONE', #205, .T. ) ;
#31 = APPLICATION_CONTEXT ( 'configuration controlled 3d designs of mechanical parts and assemblies' ) ;
#32 = AXIS2_PLACEMENT_3D ( 'NONE', #200, #137, #89 ) ;
#33 = DIRECTION ( 'NONE',  ( 1.000000000000000000, 0.000000000000000000, -0.000000000000000000 ) ) ;
#34 = FACE_OUTER_BOUND ( 'NONE', #243, .T. ) ;
#35 = ORIENTED_EDGE ( 'NONE', *, *, #130, .T. ) ;
#36 = CARTESIAN_POINT ( 'NONE',  ( 0.000000000000000000, 0.000000000000000000, 7.000000000000000000 ) ) ;
#37 = DIRECTION ( 'NONE',  ( 0.000000000000000000, 0.000000000000000000, 1.000000000000000000 ) ) ;
#38 = PERSON_AND_ORGANIZATION_ROLE ( 'creator' ) ;
#39 = CARTESIAN_POINT ( 'NONE',  ( -9.000000000000000000, 0.000000000000000000, 7.000000000000000000 ) ) ;
#40 = CC_DESIGN_PERSON_AND_ORGANIZATION_ASSIGNMENT ( #185, #38, ( #173 ) ) ;
#41 = APPROVAL_STATUS ( 'not_yet_approved' ) ;
#42 = PLANE ( 'NONE',  #92 ) ;
#43 = PERSON_AND_ORGANIZATION ( #112, #45 ) ;
#44 = CC_DESIGN_PERSON_AND_ORGANIZATION_ASSIGNMENT ( #43, #193, ( #82 ) ) ;
#45 = ORGANIZATION ( 'NEURÈENÝ', 'NEURÈENÝ', '' ) ;
#46 = EDGE_LOOP ( 'NONE', ( #143, #162 ) ) ;
#47 = ORIENTED_EDGE ( 'NONE', *, *, #106, .T. ) ;
#48 = CARTESIAN_POINT ( 'NONE',  ( 0.000000000000000000, 0.000000000000000000, 7.000000000000000000 ) ) ;
#49 = LOCAL_TIME ( 19, 19, 28.00000000000000000, #255 ) ;
#50 = ORIENTED_EDGE ( 'NONE', *, *, #130, .F. ) ;
#51 = DIRECTION ( 'NONE',  ( -1.000000000000000000, 0.000000000000000000, 0.000000000000000000 ) ) ;
#52 = CARTESIAN_POINT ( 'NONE',  ( -9.000000000000000000, 0.000000000000000000, 0.000000000000000000 ) ) ;
#53 = PLANE ( 'NONE',  #152 ) ;
#54 = MECHANICAL_CONTEXT ( 'NONE', #31, 'mechanical' ) ;
#55 = LINE ( 'NONE', #154, #209 ) ;
#56 =( NAMED_UNIT ( * ) SI_UNIT ( $, .STERADIAN. ) SOLID_ANGLE_UNIT ( ) );
#57 = DIRECTION ( 'NONE',  ( -0.000000000000000000, -0.000000000000000000, -1.000000000000000000 ) ) ;
#58 = AXIS2_PLACEMENT_3D ( 'NONE', #144, #126, #187 ) ;
#59 = APPROVAL_PERSON_ORGANIZATION ( #236, #156, #69 ) ;
#60 = ORIENTED_EDGE ( 'NONE', *, *, #1, .T. ) ;
#61 = VERTEX_POINT ( 'NONE', #151 ) ;
#62 = CYLINDRICAL_SURFACE ( 'NONE', #16, 6.000000000000000888 ) ;
#63 = ORIENTED_EDGE ( 'NONE', *, *, #160, .F. ) ;
#64 = FACE_OUTER_BOUND ( 'NONE', #77, .T. ) ;
#65 = DATE_AND_TIME ( #194, #5 ) ;
#66 = CIRCLE ( 'NONE', #87, 9.000000000000000000 ) ;
#67 = DIRECTION ( 'NONE',  ( -0.000000000000000000, -0.000000000000000000, -1.000000000000000000 ) ) ;
#68 = LINE ( 'NONE', #167, #178 ) ;
#69 = APPROVAL_ROLE ( '' ) ;
#70 = EDGE_CURVE ( 'NONE', #145, #245, #7, .T. ) ;
#71 = AXIS2_PLACEMENT_3D ( 'NONE', #48, #212, #246 ) ;
#72 = CARTESIAN_POINT ( 'NONE',  ( 0.000000000000000000, 0.000000000000000000, 407.0000000000000000 ) ) ;
#73 = CC_DESIGN_DATE_AND_TIME_ASSIGNMENT ( #110, #113, ( #118 ) ) ;
#74 = CC_DESIGN_SECURITY_CLASSIFICATION ( #114, ( #173 ) ) ;
#75 = AXIS2_PLACEMENT_3D ( 'NONE', #27, #228, #33 ) ;
#76 = ORIENTED_EDGE ( 'NONE', *, *, #160, .T. ) ;
#77 = EDGE_LOOP ( 'NONE', ( #128, #186, #103, #29 ) ) ;
#78 = CARTESIAN_POINT ( 'NONE',  ( 0.000000000000000000, 0.000000000000000000, 407.0000000000000000 ) ) ;
#79 = COORDINATED_UNIVERSAL_TIME_OFFSET ( 1, 0, .AHEAD. ) ;
#80 = ORIENTED_EDGE ( 'NONE', *, *, #197, .T. ) ;
#81 = DIRECTION ( 'NONE',  ( -0.000000000000000000, -0.000000000000000000, -1.000000000000000000 ) ) ;
#82 = PRODUCT ( '7173', '7173', '', ( #54 ) ) ;
#83 = APPROVAL_DATE_TIME ( #111, #171 ) ;
#84 = DIRECTION ( 'NONE',  ( -0.000000000000000000, -0.000000000000000000, -1.000000000000000000 ) ) ;
#85 = DIRECTION ( 'NONE',  ( 0.000000000000000000, 0.000000000000000000, 1.000000000000000000 ) ) ;
#86 = SECURITY_CLASSIFICATION_LEVEL ( 'unclassified' ) ;
#87 = AXIS2_PLACEMENT_3D ( 'NONE', #215, #191, #98 ) ;
#88 = PERSON_AND_ORGANIZATION ( #112, #45 ) ;
#89 = DIRECTION ( 'NONE',  ( 1.000000000000000000, 0.000000000000000000, 0.000000000000000000 ) ) ;
#90 = CALENDAR_DATE ( 2022, 7, 7 ) ;
#91 = CC_DESIGN_PERSON_AND_ORGANIZATION_ASSIGNMENT ( #25, #199, ( #118 ) ) ;
#92 = AXIS2_PLACEMENT_3D ( 'NONE', #219, #22, #155 ) ;
#93 = AXIS2_PLACEMENT_3D ( 'NONE', #72, #57, #116 ) ;
#94 = ORIENTED_EDGE ( 'NONE', *, *, #70, .T. ) ;
#95 = CARTESIAN_POINT ( 'NONE',  ( 0.000000000000000000, 0.000000000000000000, 7.000000000000000000 ) ) ;
#96 = AXIS2_PLACEMENT_3D ( 'NONE', #36, #13, #164 ) ;
#97 = VERTEX_POINT ( 'NONE', #52 ) ;
#98 = DIRECTION ( 'NONE',  ( 1.000000000000000000, 0.000000000000000000, 0.000000000000000000 ) ) ;
#99 = PRODUCT_DEFINITION_SHAPE ( 'NONE', 'NONE',  #118 ) ;
#100 = VERTEX_POINT ( 'NONE', #132 ) ;
#101 = CYLINDRICAL_SURFACE ( 'NONE', #226, 9.000000000000000000 ) ;
#102 = COORDINATED_UNIVERSAL_TIME_OFFSET ( 1, 0, .AHEAD. ) ;
#103 = ORIENTED_EDGE ( 'NONE', *, *, #238, .T. ) ;
#104 = DIRECTION ( 'NONE',  ( 1.000000000000000000, 0.000000000000000000, 0.000000000000000000 ) ) ;
#105 = VECTOR ( 'NONE', #252, 1000.000000000000000 ) ;
#106 = EDGE_CURVE ( 'NONE', #183, #97, #119, .T. ) ;
#107 = DIRECTION ( 'NONE',  ( 1.000000000000000000, 0.000000000000000000, -0.000000000000000000 ) ) ;
#108 = PERSON_AND_ORGANIZATION_ROLE ( 'design_supplier' ) ;
#109 = CARTESIAN_POINT ( 'NONE',  ( 0.000000000000000000, 0.000000000000000000, 0.000000000000000000 ) ) ;
#110 = DATE_AND_TIME ( #90, #251 ) ;
#111 = DATE_AND_TIME ( #232, #198 ) ;
#112 = PERSON ( 'NEURÈENÝ', 'NEURÈENÝ', 'NEURÈENÝ', ('NEURÈENÝ'), ('NEURÈENÝ'), ('NEURÈENÝ') ) ;
#113 = DATE_TIME_ROLE ( 'creation_date' ) ;
#114 = SECURITY_CLASSIFICATION ( '', '', #86 ) ;
#115 = APPROVAL_DATE_TIME ( #220, #4 ) ;
#116 = DIRECTION ( 'NONE',  ( -1.000000000000000000, 0.000000000000000000, 0.000000000000000000 ) ) ;
#117 = PRODUCT_RELATED_PRODUCT_CATEGORY ( 'detail', '', ( #82 ) ) ;
#118 = PRODUCT_DEFINITION ( 'NEZNÁMÝ', '', #173, #131 ) ;
#119 = CIRCLE ( 'NONE', #120, 9.000000000000000000 ) ;
#120 = AXIS2_PLACEMENT_3D ( 'NONE', #109, #147, #104 ) ;
#121 = APPROVAL_PERSON_ORGANIZATION ( #153, #171, #214 ) ;
#122 = VERTEX_POINT ( 'NONE', #239 ) ;
#123 = ADVANCED_BREP_SHAPE_REPRESENTATION ( '7173', ( #157, #32 ), #201 ) ;
#124 = CC_DESIGN_PERSON_AND_ORGANIZATION_ASSIGNMENT ( #148, #108, ( #173 ) ) ;
#125 = DIRECTION ( 'NONE',  ( 0.000000000000000000, 0.000000000000000000, 1.000000000000000000 ) ) ;
#126 = DIRECTION ( 'NONE',  ( 0.000000000000000000, 0.000000000000000000, 1.000000000000000000 ) ) ;
#127 = APPROVAL_PERSON_ORGANIZATION ( #88, #4, #172 ) ;
#128 = ORIENTED_EDGE ( 'NONE', *, *, #207, .F. ) ;
#129 = DIRECTION ( 'NONE',  ( -1.000000000000000000, 0.000000000000000000, 0.000000000000000000 ) ) ;
#130 = EDGE_CURVE ( 'NONE', #230, #122, #15, .T. ) ;
#131 = DESIGN_CONTEXT ( 'detailed design', #150, 'design' ) ;
#132 = CARTESIAN_POINT ( 'NONE',  ( 6.000000000000000888, 7.347880794884120722E-16, 407.0000000000000000 ) ) ;
#133 = APPROVAL_STATUS ( 'not_yet_approved' ) ;
#134 = CARTESIAN_POINT ( 'NONE',  ( 0.000000000000000000, 0.000000000000000000, 7.000000000000000000 ) ) ;
#135 =( LENGTH_UNIT ( ) NAMED_UNIT ( * ) SI_UNIT ( .MILLI., .METRE. ) );
#136 = APPLICATION_PROTOCOL_DEFINITION ( 'international standard', 'config_control_design', 1994, #150 ) ;
#137 = DIRECTION ( 'NONE',  ( 0.000000000000000000, 0.000000000000000000, 1.000000000000000000 ) ) ;
#138 = AXIS2_PLACEMENT_3D ( 'NONE', #11, #253, #237 ) ;
#139 = VECTOR ( 'NONE', #67, 1000.000000000000000 ) ;
#140 = EDGE_LOOP ( 'NONE', ( #179, #50 ) ) ;
#141 = CC_DESIGN_DATE_AND_TIME_ASSIGNMENT ( #217, #247, ( #114 ) ) ;
#142 = PLANE ( 'NONE',  #75 ) ;
#143 = ORIENTED_EDGE ( 'NONE', *, *, #223, .F. ) ;
#144 = CARTESIAN_POINT ( 'NONE',  ( 0.000000000000000000, 0.000000000000000000, 7.000000000000000000 ) ) ;
#145 = VERTEX_POINT ( 'NONE', #169 ) ;
#146 = ADVANCED_FACE ( 'NONE', ( #181 ), #189, .T. ) ;
#147 = DIRECTION ( 'NONE',  ( 0.000000000000000000, 0.000000000000000000, 1.000000000000000000 ) ) ;
#148 = PERSON_AND_ORGANIZATION ( #112, #45 ) ;
#149 = LINE ( 'NONE', #211, #139 ) ;
#150 = APPLICATION_CONTEXT ( 'configuration controlled 3d designs of mechanical parts and assemblies' ) ;
#151 = CARTESIAN_POINT ( 'NONE',  ( -6.000000000000000888, 0.000000000000000000, 407.0000000000000000 ) ) ;
#152 = AXIS2_PLACEMENT_3D ( 'NONE', #78, #37, #107 ) ;
#153 = PERSON_AND_ORGANIZATION ( #112, #45 ) ;
#154 = CARTESIAN_POINT ( 'NONE',  ( -6.000000000000000888, 0.000000000000000000, 407.0000000000000000 ) ) ;
#155 = DIRECTION ( 'NONE',  ( 1.000000000000000000, 0.000000000000000000, -0.000000000000000000 ) ) ;
#156 = APPROVAL ( #250, 'NEURÈENÝ' ) ;
#157 = MANIFOLD_SOLID_BREP ( 'Pøidat vysunutím3', #188 ) ;
#158 = CC_DESIGN_APPROVAL ( #156, ( #114 ) ) ;
#159 = ORIENTED_EDGE ( 'NONE', *, *, #207, .T. ) ;
#160 = EDGE_CURVE ( 'NONE', #245, #183, #149, .T. ) ;
#161 = ADVANCED_FACE ( 'NONE', ( #30 ), #53, .T. ) ;
#162 = ORIENTED_EDGE ( 'NONE', *, *, #106, .F. ) ;
#163 = ORIENTED_EDGE ( 'NONE', *, *, #70, .F. ) ;
#164 = DIRECTION ( 'NONE',  ( 1.000000000000000000, 0.000000000000000000, 0.000000000000000000 ) ) ;
#165 = APPROVAL_DATE_TIME ( #65, #156 ) ;
#166 = ORIENTED_EDGE ( 'NONE', *, *, #192, .F. ) ;
#167 = CARTESIAN_POINT ( 'NONE',  ( 6.000000000000000888, 7.347880794884120722E-16, 407.0000000000000000 ) ) ;
#168 = CARTESIAN_POINT ( 'NONE',  ( 0.000000000000000000, 0.000000000000000000, 407.0000000000000000 ) ) ;
#169 = CARTESIAN_POINT ( 'NONE',  ( -9.000000000000000000, 0.000000000000000000, 7.000000000000000000 ) ) ;
#170 = CALENDAR_DATE ( 2022, 7, 7 ) ;
#171 = APPROVAL ( #133, 'NEURÈENÝ' ) ;
#172 = APPROVAL_ROLE ( '' ) ;
#173 = PRODUCT_DEFINITION_FORMATION_WITH_SPECIFIED_SOURCE ( 'LIBOVOLNÝ', '', #82, .NOT_KNOWN. ) ;
#174 = CARTESIAN_POINT ( 'NONE',  ( 9.000000000000000000, 1.102182119232617714E-15, 7.000000000000000000 ) ) ;
#175 = EDGE_CURVE ( 'NONE', #122, #230, #222, .T. ) ;
#176 = COORDINATED_UNIVERSAL_TIME_OFFSET ( 1, 0, .AHEAD. ) ;
#177 = CC_DESIGN_APPROVAL ( #171, ( #173 ) ) ;
#178 = VECTOR ( 'NONE', #249, 1000.000000000000000 ) ;
#179 = ORIENTED_EDGE ( 'NONE', *, *, #175, .F. ) ;
#180 = FACE_OUTER_BOUND ( 'NONE', #46, .T. ) ;
#181 = FACE_OUTER_BOUND ( 'NONE', #233, .T. ) ;
#182 = PERSON_AND_ORGANIZATION ( #112, #45 ) ;
#183 = VERTEX_POINT ( 'NONE', #17 ) ;
#184 = FACE_OUTER_BOUND ( 'NONE', #6, .T. ) ;
#185 = PERSON_AND_ORGANIZATION ( #112, #45 ) ;
#186 = ORIENTED_EDGE ( 'NONE', *, *, #197, .F. ) ;
#187 = DIRECTION ( 'NONE',  ( 1.000000000000000000, 0.000000000000000000, 0.000000000000000000 ) ) ;
#188 = CLOSED_SHELL ( 'NONE', ( #21, #146, #203, #229, #9, #225, #161 ) ) ;
#189 = CYLINDRICAL_SURFACE ( 'NONE', #242, 9.000000000000000000 ) ;
#190 = PERSON_AND_ORGANIZATION_ROLE ( 'classification_officer' ) ;
#191 = DIRECTION ( 'NONE',  ( 0.000000000000000000, 0.000000000000000000, 1.000000000000000000 ) ) ;
#192 = EDGE_CURVE ( 'NONE', #100, #61, #26, .T. ) ;
#193 = PERSON_AND_ORGANIZATION_ROLE ( 'design_owner' ) ;
#194 = CALENDAR_DATE ( 2022, 7, 7 ) ;
#195 = CYLINDRICAL_SURFACE ( 'NONE', #93, 6.000000000000000888 ) ;
#196 =( NAMED_UNIT ( * ) PLANE_ANGLE_UNIT ( ) SI_UNIT ( $, .RADIAN. ) );
#197 = EDGE_CURVE ( 'NONE', #61, #100, #234, .T. ) ;
#198 = LOCAL_TIME ( 19, 19, 28.00000000000000000, #102 ) ;
#199 = PERSON_AND_ORGANIZATION_ROLE ( 'creator' ) ;
#200 = CARTESIAN_POINT ( 'NONE',  ( 0.000000000000000000, 0.000000000000000000, 0.000000000000000000 ) ) ;
#201 =( GEOMETRIC_REPRESENTATION_CONTEXT ( 3 ) GLOBAL_UNCERTAINTY_ASSIGNED_CONTEXT ( ( #218 ) ) GLOBAL_UNIT_ASSIGNED_CONTEXT ( ( #135, #196, #56 ) ) REPRESENTATION_CONTEXT ( 'NONE', 'WORKASPACE' ) );
#202 = AXIS2_PLACEMENT_3D ( 'NONE', #95, #125, #210 ) ;
#203 = ADVANCED_FACE ( 'NONE', ( #34 ), #101, .T. ) ;
#204 = ORIENTED_EDGE ( 'NONE', *, *, #14, .F. ) ;
#205 = EDGE_LOOP ( 'NONE', ( #80, #206 ) ) ;
#206 = ORIENTED_EDGE ( 'NONE', *, *, #192, .T. ) ;
#207 = EDGE_CURVE ( 'NONE', #100, #230, #68, .T. ) ;
#208 = DIRECTION ( 'NONE',  ( 1.000000000000000000, 0.000000000000000000, 0.000000000000000000 ) ) ;
#209 = VECTOR ( 'NONE', #3, 1000.000000000000000 ) ;
#210 = DIRECTION ( 'NONE',  ( 1.000000000000000000, 0.000000000000000000, 0.000000000000000000 ) ) ;
#211 = CARTESIAN_POINT ( 'NONE',  ( 9.000000000000000000, 1.102182119232617714E-15, 7.000000000000000000 ) ) ;
#212 = DIRECTION ( 'NONE',  ( 0.000000000000000000, 0.000000000000000000, 1.000000000000000000 ) ) ;
#213 = CIRCLE ( 'NONE', #202, 9.000000000000000000 ) ;
#214 = APPROVAL_ROLE ( '' ) ;
#215 = CARTESIAN_POINT ( 'NONE',  ( 0.000000000000000000, 0.000000000000000000, 0.000000000000000000 ) ) ;
#216 = AXIS2_PLACEMENT_3D ( 'NONE', #18, #85, #208 ) ;
#217 = DATE_AND_TIME ( #170, #224 ) ;
#218 = UNCERTAINTY_MEASURE_WITH_UNIT (LENGTH_MEASURE( 1.000000000000000082E-05 ), #135, 'distance_accuracy_value', 'NONE');
#219 = CARTESIAN_POINT ( 'NONE',  ( 0.000000000000000000, 0.000000000000000000, 7.000000000000000000 ) ) ;
#220 = DATE_AND_TIME ( #2, #49 ) ;
#221 = FACE_OUTER_BOUND ( 'NONE', #12, .T. ) ;
#222 = CIRCLE ( 'NONE', #96, 6.000000000000000888 ) ;
#223 = EDGE_CURVE ( 'NONE', #97, #183, #66, .T. ) ;
#224 = LOCAL_TIME ( 19, 19, 28.00000000000000000, #19 ) ;
#225 = ADVANCED_FACE ( 'NONE', ( #64 ), #195, .T. ) ;
#226 = AXIS2_PLACEMENT_3D ( 'NONE', #134, #81, #20 ) ;
#227 = ORIENTED_EDGE ( 'NONE', *, *, #14, .T. ) ;
#228 = DIRECTION ( 'NONE',  ( 0.000000000000000000, 0.000000000000000000, 1.000000000000000000 ) ) ;
#229 = ADVANCED_FACE ( 'NONE', ( #24, #221 ), #42, .T. ) ;
#230 = VERTEX_POINT ( 'NONE', #240 ) ;
#231 = CARTESIAN_POINT ( 'NONE',  ( 0.000000000000000000, 0.000000000000000000, 7.000000000000000000 ) ) ;
#232 = CALENDAR_DATE ( 2022, 7, 7 ) ;
#233 = EDGE_LOOP ( 'NONE', ( #28, #76, #47, #204 ) ) ;
#234 = CIRCLE ( 'NONE', #138, 6.000000000000000888 ) ;
#235 = DIRECTION ( 'NONE',  ( -0.000000000000000000, -0.000000000000000000, -1.000000000000000000 ) ) ;
#236 = PERSON_AND_ORGANIZATION ( #112, #45 ) ;
#237 = DIRECTION ( 'NONE',  ( 1.000000000000000000, 0.000000000000000000, 0.000000000000000000 ) ) ;
#238 = EDGE_CURVE ( 'NONE', #61, #122, #55, .T. ) ;
#239 = CARTESIAN_POINT ( 'NONE',  ( -6.000000000000000888, 0.000000000000000000, 7.000000000000000000 ) ) ;
#240 = CARTESIAN_POINT ( 'NONE',  ( 6.000000000000000888, 7.347880794884120722E-16, 7.000000000000000000 ) ) ;
#241 = CC_DESIGN_PERSON_AND_ORGANIZATION_ASSIGNMENT ( #182, #190, ( #114 ) ) ;
#242 = AXIS2_PLACEMENT_3D ( 'NONE', #231, #235, #51 ) ;
#243 = EDGE_LOOP ( 'NONE', ( #63, #163, #227, #244 ) ) ;
#244 = ORIENTED_EDGE ( 'NONE', *, *, #223, .T. ) ;
#245 = VERTEX_POINT ( 'NONE', #174 ) ;
#246 = DIRECTION ( 'NONE',  ( 1.000000000000000000, 0.000000000000000000, 0.000000000000000000 ) ) ;
#247 = DATE_TIME_ROLE ( 'classification_date' ) ;
#248 = LINE ( 'NONE', #39, #105 ) ;
#249 = DIRECTION ( 'NONE',  ( -0.000000000000000000, -0.000000000000000000, -1.000000000000000000 ) ) ;
#250 = APPROVAL_STATUS ( 'not_yet_approved' ) ;
#251 = LOCAL_TIME ( 19, 19, 28.00000000000000000, #176 ) ;
#252 = DIRECTION ( 'NONE',  ( -0.000000000000000000, -0.000000000000000000, -1.000000000000000000 ) ) ;
#253 = DIRECTION ( 'NONE',  ( 0.000000000000000000, 0.000000000000000000, 1.000000000000000000 ) ) ;
#254 = SHAPE_DEFINITION_REPRESENTATION ( #99, #123 ) ;
#255 = COORDINATED_UNIVERSAL_TIME_OFFSET ( 1, 0, .AHEAD. ) ;
ENDSEC;
END-ISO-10303-21;
