ISO-10303-21;
HEADER;
FILE_DESCRIPTION (( 'STEP AP203' ),
    '1' );
FILE_NAME ('04a2.STEP',
    '2022-07-07T17:40:42',
    ( '' ),
    ( '' ),
    'SwSTEP 2.0',
    'SolidWorks 2019',
    '' );
FILE_SCHEMA (( 'CONFIG_CONTROL_DESIGN' ));
ENDSEC;

DATA;
#1 = CYLINDRICAL_SURFACE ( 'NONE', #213, 3.000000000000000444 ) ;
#2 = DIRECTION ( 'NONE',  ( 1.000000000000000000, 0.000000000000000000, 0.000000000000000000 ) ) ;
#3 = CARTESIAN_POINT ( 'NONE',  ( 0.000000000000000000, 0.000000000000000000, 5.000000000000000000 ) ) ;
#4 = CARTESIAN_POINT ( 'NONE',  ( 0.000000000000000000, 0.000000000000000000, 0.000000000000000000 ) ) ;
#5 = CIRCLE ( 'NONE', #218, 6.000000000000000888 ) ;
#6 = EDGE_CURVE ( 'NONE', #251, #12, #133, .T. ) ;
#7 = DIRECTION ( 'NONE',  ( 0.000000000000000000, 0.000000000000000000, 1.000000000000000000 ) ) ;
#8 = CC_DESIGN_APPROVAL ( #134, ( #51 ) ) ;
#9 = PERSON_AND_ORGANIZATION ( #123, #169 ) ;
#10 = CARTESIAN_POINT ( 'NONE',  ( 0.000000000000000000, 0.000000000000000000, 5.000000000000000000 ) ) ;
#11 = SECURITY_CLASSIFICATION_LEVEL ( 'unclassified' ) ;
#12 = VERTEX_POINT ( 'NONE', #190 ) ;
#13 = FACE_OUTER_BOUND ( 'NONE', #154, .T. ) ;
#14 = ADVANCED_FACE ( 'NONE', ( #13 ), #210, .T. ) ;
#15 = ORIENTED_EDGE ( 'NONE', *, *, #41, .F. ) ;
#16 = PRODUCT_RELATED_PRODUCT_CATEGORY ( 'detail', '', ( #245 ) ) ;
#17 = DIRECTION ( 'NONE',  ( 0.000000000000000000, 0.000000000000000000, 1.000000000000000000 ) ) ;
#18 = EDGE_CURVE ( 'NONE', #86, #68, #158, .T. ) ;
#19 = DIRECTION ( 'NONE',  ( 1.000000000000000000, 0.000000000000000000, -0.000000000000000000 ) ) ;
#20 = CARTESIAN_POINT ( 'NONE',  ( 0.000000000000000000, 0.000000000000000000, 0.000000000000000000 ) ) ;
#21 = AXIS2_PLACEMENT_3D ( 'NONE', #40, #116, #220 ) ;
#22 = DIRECTION ( 'NONE',  ( -0.000000000000000000, -0.000000000000000000, -1.000000000000000000 ) ) ;
#23 = PERSON_AND_ORGANIZATION_ROLE ( 'creator' ) ;
#24 = APPROVAL_DATE_TIME ( #119, #237 ) ;
#25 = CIRCLE ( 'NONE', #135, 3.000000000000000444 ) ;
#26 = CARTESIAN_POINT ( 'NONE',  ( 0.000000000000000000, 0.000000000000000000, 5.000000000000000000 ) ) ;
#27 = AXIS2_PLACEMENT_3D ( 'NONE', #239, #186, #59 ) ;
#28 = ORIENTED_EDGE ( 'NONE', *, *, #192, .F. ) ;
#29 = AXIS2_PLACEMENT_3D ( 'NONE', #3, #101, #240 ) ;
#30 = CARTESIAN_POINT ( 'NONE',  ( -6.000000000000000888, 0.000000000000000000, 5.000000000000000000 ) ) ;
#31 = EDGE_LOOP ( 'NONE', ( #170, #155 ) ) ;
#32 = AXIS2_PLACEMENT_3D ( 'NONE', #26, #248, #157 ) ;
#33 = CARTESIAN_POINT ( 'NONE',  ( 0.000000000000000000, 0.000000000000000000, 255.0000000000000000 ) ) ;
#34 = APPLICATION_CONTEXT ( 'configuration controlled 3d designs of mechanical parts and assemblies' ) ;
#35 = DIRECTION ( 'NONE',  ( 1.000000000000000000, 0.000000000000000000, 0.000000000000000000 ) ) ;
#36 = EDGE_CURVE ( 'NONE', #131, #12, #74, .T. ) ;
#37 = CC_DESIGN_APPROVAL ( #56, ( #215 ) ) ;
#38 = CARTESIAN_POINT ( 'NONE',  ( 0.000000000000000000, 0.000000000000000000, 255.0000000000000000 ) ) ;
#39 = CARTESIAN_POINT ( 'NONE',  ( 6.000000000000000888, 7.347880794884120722E-16, 0.000000000000000000 ) ) ;
#40 = CARTESIAN_POINT ( 'NONE',  ( 0.000000000000000000, 0.000000000000000000, 5.000000000000000000 ) ) ;
#41 = EDGE_CURVE ( 'NONE', #68, #107, #139, .T. ) ;
#42 = FACE_OUTER_BOUND ( 'NONE', #234, .T. ) ;
#43 = VECTOR ( 'NONE', #22, 1000.000000000000000 ) ;
#44 = APPROVAL_ROLE ( '' ) ;
#45 = DATE_TIME_ROLE ( 'creation_date' ) ;
#46 = DIRECTION ( 'NONE',  ( 1.000000000000000000, 0.000000000000000000, 0.000000000000000000 ) ) ;
#47 = PERSON_AND_ORGANIZATION ( #123, #169 ) ;
#48 = DIRECTION ( 'NONE',  ( 1.000000000000000000, 0.000000000000000000, 0.000000000000000000 ) ) ;
#49 = ORIENTED_EDGE ( 'NONE', *, *, #212, .F. ) ;
#50 = DESIGN_CONTEXT ( 'detailed design', #105, 'design' ) ;
#51 = PRODUCT_DEFINITION_FORMATION_WITH_SPECIFIED_SOURCE ( 'LIBOVOLNÝ', '', #245, .NOT_KNOWN. ) ;
#52 = ORIENTED_EDGE ( 'NONE', *, *, #111, .F. ) ;
#53 = ORIENTED_EDGE ( 'NONE', *, *, #81, .F. ) ;
#54 = AXIS2_PLACEMENT_3D ( 'NONE', #10, #238, #216 ) ;
#55 = LOCAL_TIME ( 19, 40, 42.00000000000000000, #188 ) ;
#56 = APPROVAL ( #229, 'NEURÈENÝ' ) ;
#57 = CC_DESIGN_APPROVAL ( #237, ( #94 ) ) ;
#58 = CARTESIAN_POINT ( 'NONE',  ( -3.000000000000000444, 0.000000000000000000, 255.0000000000000000 ) ) ;
#59 = DIRECTION ( 'NONE',  ( 1.000000000000000000, 0.000000000000000000, -0.000000000000000000 ) ) ;
#60 = APPLICATION_PROTOCOL_DEFINITION ( 'international standard', 'config_control_design', 1994, #34 ) ;
#61 = CARTESIAN_POINT ( 'NONE',  ( 0.000000000000000000, 0.000000000000000000, 255.0000000000000000 ) ) ;
#62 = CARTESIAN_POINT ( 'NONE',  ( -6.000000000000000888, 0.000000000000000000, 5.000000000000000000 ) ) ;
#63 = LINE ( 'NONE', #198, #43 ) ;
#64 = ADVANCED_FACE ( 'NONE', ( #136, #214 ), #76, .T. ) ;
#65 = VECTOR ( 'NONE', #109, 1000.000000000000000 ) ;
#66 = CARTESIAN_POINT ( 'NONE',  ( 3.000000000000000444, 3.673940397442060361E-16, 255.0000000000000000 ) ) ;
#67 = DATE_AND_TIME ( #204, #236 ) ;
#68 = VERTEX_POINT ( 'NONE', #217 ) ;
#69 = CC_DESIGN_DATE_AND_TIME_ASSIGNMENT ( #223, #45, ( #94 ) ) ;
#70 = ORIENTED_EDGE ( 'NONE', *, *, #192, .T. ) ;
#71 = AXIS2_PLACEMENT_3D ( 'NONE', #20, #221, #19 ) ;
#72 = ORIENTED_EDGE ( 'NONE', *, *, #18, .F. ) ;
#73 = ORIENTED_EDGE ( 'NONE', *, *, #183, .T. ) ;
#74 = CIRCLE ( 'NONE', #247, 6.000000000000000888 ) ;
#75 = DIRECTION ( 'NONE',  ( 0.000000000000000000, 0.000000000000000000, 1.000000000000000000 ) ) ;
#76 = PLANE ( 'NONE',  #27 ) ;
#77 = DIRECTION ( 'NONE',  ( -0.000000000000000000, -0.000000000000000000, -1.000000000000000000 ) ) ;
#78 = CALENDAR_DATE ( 2022, 7, 7 ) ;
#79 = AXIS2_PLACEMENT_3D ( 'NONE', #4, #160, #241 ) ;
#80 =( NAMED_UNIT ( * ) PLANE_ANGLE_UNIT ( ) SI_UNIT ( $, .RADIAN. ) );
#81 = EDGE_CURVE ( 'NONE', #251, #172, #5, .T. ) ;
#82 = DATE_TIME_ROLE ( 'classification_date' ) ;
#83 = PERSON_AND_ORGANIZATION ( #123, #169 ) ;
#84 = PERSON_AND_ORGANIZATION_ROLE ( 'creator' ) ;
#85 = CARTESIAN_POINT ( 'NONE',  ( 0.000000000000000000, 0.000000000000000000, 5.000000000000000000 ) ) ;
#86 = VERTEX_POINT ( 'NONE', #58 ) ;
#87 = LOCAL_TIME ( 19, 40, 42.00000000000000000, #145 ) ;
#88 = APPROVAL_DATE_TIME ( #67, #56 ) ;
#89 = ORIENTED_EDGE ( 'NONE', *, *, #219, .T. ) ;
#90 = EDGE_LOOP ( 'NONE', ( #28, #230, #95, #72 ) ) ;
#91 = CIRCLE ( 'NONE', #32, 6.000000000000000888 ) ;
#92 = ORIENTED_EDGE ( 'NONE', *, *, #96, .T. ) ;
#93 =( GEOMETRIC_REPRESENTATION_CONTEXT ( 3 ) GLOBAL_UNCERTAINTY_ASSIGNED_CONTEXT ( ( #143 ) ) GLOBAL_UNIT_ASSIGNED_CONTEXT ( ( #243, #80, #161 ) ) REPRESENTATION_CONTEXT ( 'NONE', 'WORKASPACE' ) );
#94 = PRODUCT_DEFINITION ( 'NEZNÁMÝ', '', #51, #50 ) ;
#95 = ORIENTED_EDGE ( 'NONE', *, *, #111, .T. ) ;
#96 = EDGE_CURVE ( 'NONE', #172, #251, #91, .T. ) ;
#97 = CARTESIAN_POINT ( 'NONE',  ( 3.000000000000000444, 3.673940397442060361E-16, 255.0000000000000000 ) ) ;
#98 = AXIS2_PLACEMENT_3D ( 'NONE', #85, #75, #2 ) ;
#99 = FACE_OUTER_BOUND ( 'NONE', #90, .T. ) ;
#100 = PLANE ( 'NONE',  #71 ) ;
#101 = DIRECTION ( 'NONE',  ( -0.000000000000000000, -0.000000000000000000, -1.000000000000000000 ) ) ;
#102 = CALENDAR_DATE ( 2022, 7, 7 ) ;
#103 = CC_DESIGN_SECURITY_CLASSIFICATION ( #215, ( #51 ) ) ;
#104 = CARTESIAN_POINT ( 'NONE',  ( 0.000000000000000000, 0.000000000000000000, 0.000000000000000000 ) ) ;
#105 = APPLICATION_CONTEXT ( 'configuration controlled 3d designs of mechanical parts and assemblies' ) ;
#106 = PERSON_AND_ORGANIZATION_ROLE ( 'classification_officer' ) ;
#107 = VERTEX_POINT ( 'NONE', #126 ) ;
#108 = PERSON_AND_ORGANIZATION ( #123, #169 ) ;
#109 = DIRECTION ( 'NONE',  ( -0.000000000000000000, -0.000000000000000000, -1.000000000000000000 ) ) ;
#110 = DIRECTION ( 'NONE',  ( 0.000000000000000000, 0.000000000000000000, 1.000000000000000000 ) ) ;
#111 = EDGE_CURVE ( 'NONE', #107, #68, #165, .T. ) ;
#112 = LOCAL_TIME ( 19, 40, 42.00000000000000000, #184 ) ;
#113 = DIRECTION ( 'NONE',  ( -0.000000000000000000, -0.000000000000000000, -1.000000000000000000 ) ) ;
#114 = DIRECTION ( 'NONE',  ( -0.000000000000000000, -0.000000000000000000, -1.000000000000000000 ) ) ;
#115 = CARTESIAN_POINT ( 'NONE',  ( 0.000000000000000000, 0.000000000000000000, 5.000000000000000000 ) ) ;
#116 = DIRECTION ( 'NONE',  ( -0.000000000000000000, -0.000000000000000000, -1.000000000000000000 ) ) ;
#117 = LOCAL_TIME ( 19, 40, 42.00000000000000000, #199 ) ;
#118 = CYLINDRICAL_SURFACE ( 'NONE', #21, 6.000000000000000888 ) ;
#119 = DATE_AND_TIME ( #102, #117 ) ;
#120 = CC_DESIGN_PERSON_AND_ORGANIZATION_ASSIGNMENT ( #152, #106, ( #215 ) ) ;
#121 = CLOSED_SHELL ( 'NONE', ( #137, #224, #196, #64, #171, #175, #14 ) ) ;
#122 = CARTESIAN_POINT ( 'NONE',  ( 0.000000000000000000, 0.000000000000000000, 255.0000000000000000 ) ) ;
#123 = PERSON ( 'NEURÈENÝ', 'NEURÈENÝ', 'NEURÈENÝ', ('NEURÈENÝ'), ('NEURÈENÝ'), ('NEURÈENÝ') ) ;
#124 = COORDINATED_UNIVERSAL_TIME_OFFSET ( 1, 0, .AHEAD. ) ;
#125 = APPROVAL_DATE_TIME ( #148, #134 ) ;
#126 = CARTESIAN_POINT ( 'NONE',  ( 3.000000000000000444, 3.673940397442060361E-16, 5.000000000000000000 ) ) ;
#127 = APPROVAL_ROLE ( '' ) ;
#128 = EDGE_LOOP ( 'NONE', ( #129, #250, #254, #252 ) ) ;
#129 = ORIENTED_EDGE ( 'NONE', *, *, #132, .F. ) ;
#130 = AXIS2_PLACEMENT_3D ( 'NONE', #122, #7, #182 ) ;
#131 = VERTEX_POINT ( 'NONE', #39 ) ;
#132 = EDGE_CURVE ( 'NONE', #168, #107, #202, .T. ) ;
#133 = LINE ( 'NONE', #30, #65 ) ;
#134 = APPROVAL ( #249, 'NEURÈENÝ' ) ;
#135 = AXIS2_PLACEMENT_3D ( 'NONE', #61, #141, #48 ) ;
#136 = FACE_BOUND ( 'NONE', #174, .T. ) ;
#137 = ADVANCED_FACE ( 'NONE', ( #99 ), #1, .T. ) ;
#138 = CARTESIAN_POINT ( 'NONE',  ( -3.000000000000000444, 0.000000000000000000, 255.0000000000000000 ) ) ;
#139 = CIRCLE ( 'NONE', #98, 3.000000000000000444 ) ;
#140 = CARTESIAN_POINT ( 'NONE',  ( 0.000000000000000000, 0.000000000000000000, 0.000000000000000000 ) ) ;
#141 = DIRECTION ( 'NONE',  ( 0.000000000000000000, 0.000000000000000000, 1.000000000000000000 ) ) ;
#142 = PERSON_AND_ORGANIZATION_ROLE ( 'design_owner' ) ;
#143 = UNCERTAINTY_MEASURE_WITH_UNIT (LENGTH_MEASURE( 1.000000000000000082E-05 ), #243, 'distance_accuracy_value', 'NONE');
#144 = AXIS2_PLACEMENT_3D ( 'NONE', #149, #77, #227 ) ;
#145 = COORDINATED_UNIVERSAL_TIME_OFFSET ( 1, 0, .AHEAD. ) ;
#146 = CYLINDRICAL_SURFACE ( 'NONE', #29, 6.000000000000000888 ) ;
#147 = MANIFOLD_SOLID_BREP ( 'Pøidat vysunutím3', #121 ) ;
#148 = DATE_AND_TIME ( #225, #112 ) ;
#149 = CARTESIAN_POINT ( 'NONE',  ( 0.000000000000000000, 0.000000000000000000, 255.0000000000000000 ) ) ;
#150 = APPROVAL_PERSON_ORGANIZATION ( #108, #56, #246 ) ;
#151 = ORIENTED_EDGE ( 'NONE', *, *, #6, .F. ) ;
#152 = PERSON_AND_ORGANIZATION ( #123, #169 ) ;
#153 = ORIENTED_EDGE ( 'NONE', *, *, #212, .T. ) ;
#154 = EDGE_LOOP ( 'NONE', ( #89, #70 ) ) ;
#155 = ORIENTED_EDGE ( 'NONE', *, *, #36, .F. ) ;
#156 = VECTOR ( 'NONE', #176, 1000.000000000000000 ) ;
#157 = DIRECTION ( 'NONE',  ( 1.000000000000000000, 0.000000000000000000, 0.000000000000000000 ) ) ;
#158 = LINE ( 'NONE', #138, #235 ) ;
#159 = DIRECTION ( 'NONE',  ( 0.000000000000000000, 0.000000000000000000, 1.000000000000000000 ) ) ;
#160 = DIRECTION ( 'NONE',  ( 0.000000000000000000, 0.000000000000000000, 1.000000000000000000 ) ) ;
#161 =( NAMED_UNIT ( * ) SI_UNIT ( $, .STERADIAN. ) SOLID_ANGLE_UNIT ( ) );
#162 = APPROVAL_STATUS ( 'not_yet_approved' ) ;
#163 = APPROVAL_PERSON_ORGANIZATION ( #222, #237, #44 ) ;
#164 = DATE_AND_TIME ( #226, #55 ) ;
#165 = CIRCLE ( 'NONE', #54, 3.000000000000000444 ) ;
#166 = CYLINDRICAL_SURFACE ( 'NONE', #144, 3.000000000000000444 ) ;
#167 = PERSON_AND_ORGANIZATION_ROLE ( 'design_supplier' ) ;
#168 = VERTEX_POINT ( 'NONE', #66 ) ;
#169 = ORGANIZATION ( 'NEURÈENÝ', 'NEURÈENÝ', '' ) ;
#170 = ORIENTED_EDGE ( 'NONE', *, *, #183, .F. ) ;
#171 = ADVANCED_FACE ( 'NONE', ( #195 ), #100, .F. ) ;
#172 = VERTEX_POINT ( 'NONE', #177 ) ;
#173 = ORIENTED_EDGE ( 'NONE', *, *, #81, .T. ) ;
#174 = EDGE_LOOP ( 'NONE', ( #15, #52 ) ) ;
#175 = ADVANCED_FACE ( 'NONE', ( #180 ), #166, .T. ) ;
#176 = DIRECTION ( 'NONE',  ( -0.000000000000000000, -0.000000000000000000, -1.000000000000000000 ) ) ;
#177 = CARTESIAN_POINT ( 'NONE',  ( 6.000000000000000888, 7.347880794884120722E-16, 5.000000000000000000 ) ) ;
#178 = FACE_OUTER_BOUND ( 'NONE', #205, .T. ) ;
#179 = CC_DESIGN_PERSON_AND_ORGANIZATION_ASSIGNMENT ( #201, #84, ( #51 ) ) ;
#180 = FACE_OUTER_BOUND ( 'NONE', #128, .T. ) ;
#181 = MECHANICAL_CONTEXT ( 'NONE', #34, 'mechanical' ) ;
#182 = DIRECTION ( 'NONE',  ( 1.000000000000000000, 0.000000000000000000, 0.000000000000000000 ) ) ;
#183 = EDGE_CURVE ( 'NONE', #12, #131, #255, .T. ) ;
#184 = COORDINATED_UNIVERSAL_TIME_OFFSET ( 1, 0, .AHEAD. ) ;
#185 = PRODUCT_DEFINITION_SHAPE ( 'NONE', 'NONE',  #94 ) ;
#186 = DIRECTION ( 'NONE',  ( 0.000000000000000000, 0.000000000000000000, 1.000000000000000000 ) ) ;
#187 = ORIENTED_EDGE ( 'NONE', *, *, #6, .T. ) ;
#188 = COORDINATED_UNIVERSAL_TIME_OFFSET ( 1, 0, .AHEAD. ) ;
#189 = CC_DESIGN_PERSON_AND_ORGANIZATION_ASSIGNMENT ( #47, #167, ( #51 ) ) ;
#190 = CARTESIAN_POINT ( 'NONE',  ( -6.000000000000000888, 0.000000000000000000, 0.000000000000000000 ) ) ;
#191 = DIRECTION ( 'NONE',  ( 1.000000000000000000, 0.000000000000000000, -0.000000000000000000 ) ) ;
#192 = EDGE_CURVE ( 'NONE', #168, #86, #25, .T. ) ;
#193 = CIRCLE ( 'NONE', #130, 3.000000000000000444 ) ;
#194 = DIRECTION ( 'NONE',  ( 0.000000000000000000, 0.000000000000000000, 1.000000000000000000 ) ) ;
#195 = FACE_OUTER_BOUND ( 'NONE', #31, .T. ) ;
#196 = ADVANCED_FACE ( 'NONE', ( #42 ), #118, .T. ) ;
#197 = DIRECTION ( 'NONE',  ( -1.000000000000000000, 0.000000000000000000, 0.000000000000000000 ) ) ;
#198 = CARTESIAN_POINT ( 'NONE',  ( 6.000000000000000888, 7.347880794884120722E-16, 5.000000000000000000 ) ) ;
#199 = COORDINATED_UNIVERSAL_TIME_OFFSET ( 1, 0, .AHEAD. ) ;
#200 = APPLICATION_PROTOCOL_DEFINITION ( 'international standard', 'config_control_design', 1994, #105 ) ;
#201 = PERSON_AND_ORGANIZATION ( #123, #169 ) ;
#202 = LINE ( 'NONE', #97, #156 ) ;
#203 = DIRECTION ( 'NONE',  ( 1.000000000000000000, 0.000000000000000000, 0.000000000000000000 ) ) ;
#204 = CALENDAR_DATE ( 2022, 7, 7 ) ;
#205 = EDGE_LOOP ( 'NONE', ( #207, #153, #231, #151 ) ) ;
#206 = SHAPE_DEFINITION_REPRESENTATION ( #185, #233 ) ;
#207 = ORIENTED_EDGE ( 'NONE', *, *, #96, .F. ) ;
#208 = EDGE_LOOP ( 'NONE', ( #173, #92 ) ) ;
#209 = AXIS2_PLACEMENT_3D ( 'NONE', #33, #110, #191 ) ;
#210 = PLANE ( 'NONE',  #209 ) ;
#211 = CC_DESIGN_PERSON_AND_ORGANIZATION_ASSIGNMENT ( #242, #142, ( #245 ) ) ;
#212 = EDGE_CURVE ( 'NONE', #172, #131, #63, .T. ) ;
#213 = AXIS2_PLACEMENT_3D ( 'NONE', #38, #114, #197 ) ;
#214 = FACE_OUTER_BOUND ( 'NONE', #208, .T. ) ;
#215 = SECURITY_CLASSIFICATION ( '', '', #11 ) ;
#216 = DIRECTION ( 'NONE',  ( 1.000000000000000000, 0.000000000000000000, 0.000000000000000000 ) ) ;
#217 = CARTESIAN_POINT ( 'NONE',  ( -3.000000000000000444, 0.000000000000000000, 5.000000000000000000 ) ) ;
#218 = AXIS2_PLACEMENT_3D ( 'NONE', #115, #17, #35 ) ;
#219 = EDGE_CURVE ( 'NONE', #86, #168, #193, .T. ) ;
#220 = DIRECTION ( 'NONE',  ( -1.000000000000000000, 0.000000000000000000, 0.000000000000000000 ) ) ;
#221 = DIRECTION ( 'NONE',  ( 0.000000000000000000, 0.000000000000000000, 1.000000000000000000 ) ) ;
#222 = PERSON_AND_ORGANIZATION ( #123, #169 ) ;
#223 = DATE_AND_TIME ( #78, #87 ) ;
#224 = ADVANCED_FACE ( 'NONE', ( #178 ), #146, .T. ) ;
#225 = CALENDAR_DATE ( 2022, 7, 7 ) ;
#226 = CALENDAR_DATE ( 2022, 7, 7 ) ;
#227 = DIRECTION ( 'NONE',  ( -1.000000000000000000, 0.000000000000000000, 0.000000000000000000 ) ) ;
#228 = CC_DESIGN_DATE_AND_TIME_ASSIGNMENT ( #164, #82, ( #215 ) ) ;
#229 = APPROVAL_STATUS ( 'not_yet_approved' ) ;
#230 = ORIENTED_EDGE ( 'NONE', *, *, #132, .T. ) ;
#231 = ORIENTED_EDGE ( 'NONE', *, *, #36, .T. ) ;
#232 = APPROVAL_PERSON_ORGANIZATION ( #83, #134, #127 ) ;
#233 = ADVANCED_BREP_SHAPE_REPRESENTATION ( '04a2', ( #147, #244 ), #93 ) ;
#234 = EDGE_LOOP ( 'NONE', ( #49, #53, #187, #73 ) ) ;
#235 = VECTOR ( 'NONE', #113, 1000.000000000000000 ) ;
#236 = LOCAL_TIME ( 19, 40, 42.00000000000000000, #124 ) ;
#237 = APPROVAL ( #162, 'NEURÈENÝ' ) ;
#238 = DIRECTION ( 'NONE',  ( 0.000000000000000000, 0.000000000000000000, 1.000000000000000000 ) ) ;
#239 = CARTESIAN_POINT ( 'NONE',  ( 0.000000000000000000, 0.000000000000000000, 5.000000000000000000 ) ) ;
#240 = DIRECTION ( 'NONE',  ( -1.000000000000000000, 0.000000000000000000, 0.000000000000000000 ) ) ;
#241 = DIRECTION ( 'NONE',  ( 1.000000000000000000, 0.000000000000000000, 0.000000000000000000 ) ) ;
#242 = PERSON_AND_ORGANIZATION ( #123, #169 ) ;
#243 =( LENGTH_UNIT ( ) NAMED_UNIT ( * ) SI_UNIT ( .MILLI., .METRE. ) );
#244 = AXIS2_PLACEMENT_3D ( 'NONE', #140, #159, #46 ) ;
#245 = PRODUCT ( '04a2', '04a2', '', ( #181 ) ) ;
#246 = APPROVAL_ROLE ( '' ) ;
#247 = AXIS2_PLACEMENT_3D ( 'NONE', #104, #194, #203 ) ;
#248 = DIRECTION ( 'NONE',  ( 0.000000000000000000, 0.000000000000000000, 1.000000000000000000 ) ) ;
#249 = APPROVAL_STATUS ( 'not_yet_approved' ) ;
#250 = ORIENTED_EDGE ( 'NONE', *, *, #219, .F. ) ;
#251 = VERTEX_POINT ( 'NONE', #62 ) ;
#252 = ORIENTED_EDGE ( 'NONE', *, *, #41, .T. ) ;
#253 = CC_DESIGN_PERSON_AND_ORGANIZATION_ASSIGNMENT ( #9, #23, ( #94 ) ) ;
#254 = ORIENTED_EDGE ( 'NONE', *, *, #18, .T. ) ;
#255 = CIRCLE ( 'NONE', #79, 6.000000000000000888 ) ;
ENDSEC;
END-ISO-10303-21;
