ISO-10303-21;
HEADER;
FILE_DESCRIPTION (( 'STEP AP203' ),
    '1' );
FILE_NAME ('690c.STEP',
    '2023-02-13T09:49:17',
    ( '' ),
    ( '' ),
    'SwSTEP 2.0',
    'SolidWorks 2019',
    '' );
FILE_SCHEMA (( 'CONFIG_CONTROL_DESIGN' ));
ENDSEC;

DATA;
#1 = APPLICATION_PROTOCOL_DEFINITION ( 'international standard', 'config_control_design', 1994, #244 ) ;
#2 = CIRCLE ( 'NONE', #240, 11.00000000000000000 ) ;
#3 = ORIENTED_EDGE ( 'NONE', *, *, #251, .T. ) ;
#4 = AXIS2_PLACEMENT_3D ( 'NONE', #169, #253, #204 ) ;
#5 = COORDINATED_UNIVERSAL_TIME_OFFSET ( 1, 0, .AHEAD. ) ;
#6 = CARTESIAN_POINT ( 'NONE',  ( -11.00000000000000000, 0.000000000000000000, 7.000000000000000000 ) ) ;
#7 = APPROVAL_PERSON_ORGANIZATION ( #31, #117, #68 ) ;
#8 = DATE_TIME_ROLE ( 'classification_date' ) ;
#9 = CARTESIAN_POINT ( 'NONE',  ( 7.750000000000000000, 9.491012693391985815E-16, 100.0000000000000000 ) ) ;
#10 = CARTESIAN_POINT ( 'NONE',  ( 0.000000000000000000, 0.000000000000000000, 7.000000000000000000 ) ) ;
#11 = CALENDAR_DATE ( 2023, 13, 2 ) ;
#12 = VECTOR ( 'NONE', #104, 1000.000000000000000 ) ;
#13 = FACE_OUTER_BOUND ( 'NONE', #67, .T. ) ;
#14 = ADVANCED_FACE ( 'NONE', ( #48 ), #198, .F. ) ;
#15 = PERSON_AND_ORGANIZATION ( #102, #193 ) ;
#16 = DIRECTION ( 'NONE',  ( 0.000000000000000000, 0.000000000000000000, 1.000000000000000000 ) ) ;
#17 = CC_DESIGN_APPROVAL ( #101, ( #174 ) ) ;
#18 = CALENDAR_DATE ( 2023, 13, 2 ) ;
#19 = CARTESIAN_POINT ( 'NONE',  ( -7.750000000000000000, 0.000000000000000000, 7.000000000000000000 ) ) ;
#20 = FACE_OUTER_BOUND ( 'NONE', #153, .T. ) ;
#21 = AXIS2_PLACEMENT_3D ( 'NONE', #150, #63, #234 ) ;
#22 = PRODUCT ( '690c', '690c', '', ( #81 ) ) ;
#23 = AXIS2_PLACEMENT_3D ( 'NONE', #224, #125, #128 ) ;
#24 = FACE_BOUND ( 'NONE', #194, .T. ) ;
#25 = EDGE_CURVE ( 'NONE', #113, #208, #2, .T. ) ;
#26 = DESIGN_CONTEXT ( 'detailed design', #177, 'design' ) ;
#27 = ORIENTED_EDGE ( 'NONE', *, *, #158, .T. ) ;
#28 =( NAMED_UNIT ( * ) PLANE_ANGLE_UNIT ( ) SI_UNIT ( $, .RADIAN. ) );
#29 = DATE_AND_TIME ( #11, #168 ) ;
#30 = DIRECTION ( 'NONE',  ( -0.000000000000000000, -0.000000000000000000, -1.000000000000000000 ) ) ;
#31 = PERSON_AND_ORGANIZATION ( #102, #193 ) ;
#32 = DIRECTION ( 'NONE',  ( 1.000000000000000000, 0.000000000000000000, 0.000000000000000000 ) ) ;
#33 = AXIS2_PLACEMENT_3D ( 'NONE', #126, #254, #210 ) ;
#34 = CARTESIAN_POINT ( 'NONE',  ( 11.00000000000000000, 1.347111479062088405E-15, 7.000000000000000000 ) ) ;
#35 = EDGE_CURVE ( 'NONE', #113, #166, #123, .T. ) ;
#36 = DATE_AND_TIME ( #252, #176 ) ;
#37 = CALENDAR_DATE ( 2023, 13, 2 ) ;
#38 = CARTESIAN_POINT ( 'NONE',  ( -11.00000000000000000, 0.000000000000000000, 7.000000000000000000 ) ) ;
#39 = CARTESIAN_POINT ( 'NONE',  ( 0.000000000000000000, 0.000000000000000000, 7.000000000000000000 ) ) ;
#40 = VECTOR ( 'NONE', #88, 1000.000000000000000 ) ;
#41 = LOCAL_TIME ( 10, 49, 17.00000000000000000, #5 ) ;
#42 = CC_DESIGN_PERSON_AND_ORGANIZATION_ASSIGNMENT ( #207, #241, ( #174 ) ) ;
#43 = ORIENTED_EDGE ( 'NONE', *, *, #35, .T. ) ;
#44 = AXIS2_PLACEMENT_3D ( 'NONE', #228, #249, #94 ) ;
#45 = ORIENTED_EDGE ( 'NONE', *, *, #25, .F. ) ;
#46 = ORIENTED_EDGE ( 'NONE', *, *, #191, .T. ) ;
#47 = VECTOR ( 'NONE', #30, 1000.000000000000000 ) ;
#48 = FACE_OUTER_BOUND ( 'NONE', #72, .T. ) ;
#49 = PERSON_AND_ORGANIZATION_ROLE ( 'design_owner' ) ;
#50 = DIRECTION ( 'NONE',  ( 0.000000000000000000, 0.000000000000000000, 1.000000000000000000 ) ) ;
#51 = EDGE_CURVE ( 'NONE', #133, #82, #172, .T. ) ;
#52 = DIRECTION ( 'NONE',  ( 1.000000000000000000, 0.000000000000000000, 0.000000000000000000 ) ) ;
#53 = CARTESIAN_POINT ( 'NONE',  ( 11.00000000000000000, 1.347111479062088405E-15, 0.000000000000000000 ) ) ;
#54 = DIRECTION ( 'NONE',  ( -1.000000000000000000, 0.000000000000000000, 0.000000000000000000 ) ) ;
#55 = PERSON_AND_ORGANIZATION ( #102, #193 ) ;
#56 = FACE_OUTER_BOUND ( 'NONE', #243, .T. ) ;
#57 = PLANE ( 'NONE',  #139 ) ;
#58 = APPROVAL_DATE_TIME ( #222, #117 ) ;
#59 = EDGE_CURVE ( 'NONE', #122, #217, #62, .T. ) ;
#60 = CARTESIAN_POINT ( 'NONE',  ( 7.750000000000000000, 9.491012693391985815E-16, 7.000000000000000000 ) ) ;
#61 = CC_DESIGN_APPROVAL ( #66, ( #151 ) ) ;
#62 = CIRCLE ( 'NONE', #21, 7.750000000000000000 ) ;
#63 = DIRECTION ( 'NONE',  ( 0.000000000000000000, 0.000000000000000000, 1.000000000000000000 ) ) ;
#64 = ORIENTED_EDGE ( 'NONE', *, *, #51, .T. ) ;
#65 = VECTOR ( 'NONE', #121, 1000.000000000000000 ) ;
#66 = APPROVAL ( #105, 'NEURÈENÝ' ) ;
#67 = EDGE_LOOP ( 'NONE', ( #235, #3, #157, #119 ) ) ;
#68 = APPROVAL_ROLE ( '' ) ;
#69 = AXIS2_PLACEMENT_3D ( 'NONE', #178, #84, #238 ) ;
#70 = ORIENTED_EDGE ( 'NONE', *, *, #99, .T. ) ;
#71 = PERSON_AND_ORGANIZATION ( #102, #193 ) ;
#72 = EDGE_LOOP ( 'NONE', ( #195, #225 ) ) ;
#73 = DIRECTION ( 'NONE',  ( 0.000000000000000000, 0.000000000000000000, 1.000000000000000000 ) ) ;
#74 = ADVANCED_FACE ( 'NONE', ( #20 ), #173, .T. ) ;
#75 = APPROVAL_DATE_TIME ( #29, #66 ) ;
#76 = CLOSED_SHELL ( 'NONE', ( #209, #74, #155, #86, #14, #135, #214 ) ) ;
#77 = PLANE ( 'NONE',  #33 ) ;
#78 = CC_DESIGN_APPROVAL ( #117, ( #170 ) ) ;
#79 = CC_DESIGN_PERSON_AND_ORGANIZATION_ASSIGNMENT ( #124, #211, ( #174 ) ) ;
#80 = DIRECTION ( 'NONE',  ( 0.000000000000000000, 0.000000000000000000, 1.000000000000000000 ) ) ;
#81 = MECHANICAL_CONTEXT ( 'NONE', #244, 'mechanical' ) ;
#82 = VERTEX_POINT ( 'NONE', #192 ) ;
#83 = AXIS2_PLACEMENT_3D ( 'NONE', #171, #16, #246 ) ;
#84 = DIRECTION ( 'NONE',  ( 0.000000000000000000, 0.000000000000000000, 1.000000000000000000 ) ) ;
#85 = AXIS2_PLACEMENT_3D ( 'NONE', #149, #80, #111 ) ;
#86 = ADVANCED_FACE ( 'NONE', ( #24, #250 ), #57, .T. ) ;
#87 = CARTESIAN_POINT ( 'NONE',  ( 0.000000000000000000, 0.000000000000000000, 0.000000000000000000 ) ) ;
#88 = DIRECTION ( 'NONE',  ( -0.000000000000000000, -0.000000000000000000, -1.000000000000000000 ) ) ;
#89 = CARTESIAN_POINT ( 'NONE',  ( 0.000000000000000000, 0.000000000000000000, 100.0000000000000000 ) ) ;
#90 = DATE_AND_TIME ( #164, #41 ) ;
#91 = AXIS2_PLACEMENT_3D ( 'NONE', #200, #50, #32 ) ;
#92 = CC_DESIGN_DATE_AND_TIME_ASSIGNMENT ( #36, #8, ( #151 ) ) ;
#93 = DATE_AND_TIME ( #18, #218 ) ;
#94 = DIRECTION ( 'NONE',  ( -1.000000000000000000, 0.000000000000000000, 0.000000000000000000 ) ) ;
#95 = DATE_TIME_ROLE ( 'creation_date' ) ;
#96 = LINE ( 'NONE', #144, #65 ) ;
#97 = DIRECTION ( 'NONE',  ( 1.000000000000000000, 0.000000000000000000, 0.000000000000000000 ) ) ;
#98 = EDGE_CURVE ( 'NONE', #163, #166, #229, .T. ) ;
#99 = EDGE_CURVE ( 'NONE', #208, #113, #148, .T. ) ;
#100 = AXIS2_PLACEMENT_3D ( 'NONE', #247, #190, #146 ) ;
#101 = APPROVAL ( #202, 'NEURÈENÝ' ) ;
#102 = PERSON ( 'NEURÈENÝ', 'NEURÈENÝ', 'NEURÈENÝ', ('NEURÈENÝ'), ('NEURÈENÝ'), ('NEURÈENÝ') ) ;
#103 = COORDINATED_UNIVERSAL_TIME_OFFSET ( 1, 0, .AHEAD. ) ;
#104 = DIRECTION ( 'NONE',  ( -0.000000000000000000, -0.000000000000000000, -1.000000000000000000 ) ) ;
#105 = APPROVAL_STATUS ( 'not_yet_approved' ) ;
#106 = CYLINDRICAL_SURFACE ( 'NONE', #23, 11.00000000000000000 ) ;
#107 = ORIENTED_EDGE ( 'NONE', *, *, #232, .T. ) ;
#108 = PERSON_AND_ORGANIZATION ( #102, #193 ) ;
#109 = FACE_OUTER_BOUND ( 'NONE', #156, .T. ) ;
#110 = AXIS2_PLACEMENT_3D ( 'NONE', #10, #142, #54 ) ;
#111 = DIRECTION ( 'NONE',  ( 1.000000000000000000, 0.000000000000000000, 0.000000000000000000 ) ) ;
#112 = EDGE_LOOP ( 'NONE', ( #70, #219 ) ) ;
#113 = VERTEX_POINT ( 'NONE', #212 ) ;
#114 = CC_DESIGN_DATE_AND_TIME_ASSIGNMENT ( #93, #95, ( #170 ) ) ;
#115 = ORIENTED_EDGE ( 'NONE', *, *, #251, .F. ) ;
#116 = APPROVAL_PERSON_ORGANIZATION ( #108, #101, #186 ) ;
#117 = APPROVAL ( #127, 'NEURÈENÝ' ) ;
#118 = COORDINATED_UNIVERSAL_TIME_OFFSET ( 1, 0, .AHEAD. ) ;
#119 = ORIENTED_EDGE ( 'NONE', *, *, #158, .F. ) ;
#120 = CARTESIAN_POINT ( 'NONE',  ( 0.000000000000000000, 0.000000000000000000, 7.000000000000000000 ) ) ;
#121 = DIRECTION ( 'NONE',  ( -0.000000000000000000, -0.000000000000000000, -1.000000000000000000 ) ) ;
#122 = VERTEX_POINT ( 'NONE', #19 ) ;
#123 = LINE ( 'NONE', #34, #12 ) ;
#124 = PERSON_AND_ORGANIZATION ( #102, #193 ) ;
#125 = DIRECTION ( 'NONE',  ( -0.000000000000000000, -0.000000000000000000, -1.000000000000000000 ) ) ;
#126 = CARTESIAN_POINT ( 'NONE',  ( 0.000000000000000000, 0.000000000000000000, 100.0000000000000000 ) ) ;
#127 = APPROVAL_STATUS ( 'not_yet_approved' ) ;
#128 = DIRECTION ( 'NONE',  ( -1.000000000000000000, 0.000000000000000000, 0.000000000000000000 ) ) ;
#129 = ORIENTED_EDGE ( 'NONE', *, *, #99, .F. ) ;
#130 = EDGE_CURVE ( 'NONE', #208, #163, #179, .T. ) ;
#131 =( NAMED_UNIT ( * ) SI_UNIT ( $, .STERADIAN. ) SOLID_ANGLE_UNIT ( ) );
#132 = ORIENTED_EDGE ( 'NONE', *, *, #255, .F. ) ;
#133 = VERTEX_POINT ( 'NONE', #138 ) ;
#134 = MANIFOLD_SOLID_BREP ( 'Pøidat vysunutím3', #76 ) ;
#135 = ADVANCED_FACE ( 'NONE', ( #109 ), #188, .T. ) ;
#136 = AXIS2_PLACEMENT_3D ( 'NONE', #187, #162, #141 ) ;
#137 = SECURITY_CLASSIFICATION_LEVEL ( 'unclassified' ) ;
#138 = CARTESIAN_POINT ( 'NONE',  ( -7.750000000000000000, 0.000000000000000000, 100.0000000000000000 ) ) ;
#139 = AXIS2_PLACEMENT_3D ( 'NONE', #39, #152, #233 ) ;
#140 = PERSON_AND_ORGANIZATION_ROLE ( 'creator' ) ;
#141 = DIRECTION ( 'NONE',  ( -1.000000000000000000, 0.000000000000000000, 0.000000000000000000 ) ) ;
#142 = DIRECTION ( 'NONE',  ( -0.000000000000000000, -0.000000000000000000, -1.000000000000000000 ) ) ;
#143 = PERSON_AND_ORGANIZATION ( #102, #193 ) ;
#144 = CARTESIAN_POINT ( 'NONE',  ( -7.750000000000000000, 0.000000000000000000, 100.0000000000000000 ) ) ;
#145 = CC_DESIGN_PERSON_AND_ORGANIZATION_ASSIGNMENT ( #55, #140, ( #170 ) ) ;
#146 = DIRECTION ( 'NONE',  ( 1.000000000000000000, 0.000000000000000000, 0.000000000000000000 ) ) ;
#147 = PRODUCT_DEFINITION_SHAPE ( 'NONE', 'NONE',  #170 ) ;
#148 = CIRCLE ( 'NONE', #91, 11.00000000000000000 ) ;
#149 = CARTESIAN_POINT ( 'NONE',  ( 0.000000000000000000, 0.000000000000000000, 0.000000000000000000 ) ) ;
#150 = CARTESIAN_POINT ( 'NONE',  ( 0.000000000000000000, 0.000000000000000000, 7.000000000000000000 ) ) ;
#151 = SECURITY_CLASSIFICATION ( '', '', #137 ) ;
#152 = DIRECTION ( 'NONE',  ( 0.000000000000000000, 0.000000000000000000, 1.000000000000000000 ) ) ;
#153 = EDGE_LOOP ( 'NONE', ( #45, #43, #107, #196 ) ) ;
#154 = CC_DESIGN_PERSON_AND_ORGANIZATION_ASSIGNMENT ( #15, #221, ( #151 ) ) ;
#155 = ADVANCED_FACE ( 'NONE', ( #161 ), #106, .T. ) ;
#156 = EDGE_LOOP ( 'NONE', ( #115, #197, #27, #185 ) ) ;
#157 = ORIENTED_EDGE ( 'NONE', *, *, #255, .T. ) ;
#158 = EDGE_CURVE ( 'NONE', #133, #122, #96, .T. ) ;
#159 = ORIENTED_EDGE ( 'NONE', *, *, #35, .F. ) ;
#160 = CIRCLE ( 'NONE', #83, 7.750000000000000000 ) ;
#161 = FACE_OUTER_BOUND ( 'NONE', #205, .T. ) ;
#162 = DIRECTION ( 'NONE',  ( -0.000000000000000000, -0.000000000000000000, -1.000000000000000000 ) ) ;
#163 = VERTEX_POINT ( 'NONE', #231 ) ;
#164 = CALENDAR_DATE ( 2023, 13, 2 ) ;
#165 = CYLINDRICAL_SURFACE ( 'NONE', #44, 7.750000000000000000 ) ;
#166 = VERTEX_POINT ( 'NONE', #53 ) ;
#167 = COORDINATED_UNIVERSAL_TIME_OFFSET ( 1, 0, .AHEAD. ) ;
#168 = LOCAL_TIME ( 10, 49, 17.00000000000000000, #103 ) ;
#169 = CARTESIAN_POINT ( 'NONE',  ( 0.000000000000000000, 0.000000000000000000, 0.000000000000000000 ) ) ;
#170 = PRODUCT_DEFINITION ( 'NEZNÁMÝ', '', #174, #26 ) ;
#171 = CARTESIAN_POINT ( 'NONE',  ( 0.000000000000000000, 0.000000000000000000, 100.0000000000000000 ) ) ;
#172 = CIRCLE ( 'NONE', #236, 7.750000000000000000 ) ;
#173 = CYLINDRICAL_SURFACE ( 'NONE', #110, 11.00000000000000000 ) ;
#174 = PRODUCT_DEFINITION_FORMATION_WITH_SPECIFIED_SOURCE ( 'LIBOVOLNÝ', '', #22, .NOT_KNOWN. ) ;
#175 = DIRECTION ( 'NONE',  ( 0.000000000000000000, 0.000000000000000000, 1.000000000000000000 ) ) ;
#176 = LOCAL_TIME ( 10, 49, 17.00000000000000000, #167 ) ;
#177 = APPLICATION_CONTEXT ( 'configuration controlled 3d designs of mechanical parts and assemblies' ) ;
#178 = CARTESIAN_POINT ( 'NONE',  ( 0.000000000000000000, 0.000000000000000000, 0.000000000000000000 ) ) ;
#179 = LINE ( 'NONE', #38, #47 ) ;
#180 = LOCAL_TIME ( 10, 49, 17.00000000000000000, #118 ) ;
#181 = ADVANCED_BREP_SHAPE_REPRESENTATION ( '690c', ( #134, #69 ), #206 ) ;
#182 = APPLICATION_PROTOCOL_DEFINITION ( 'international standard', 'config_control_design', 1994, #177 ) ;
#183 = LINE ( 'NONE', #9, #40 ) ;
#184 = APPROVAL_ROLE ( '' ) ;
#185 = ORIENTED_EDGE ( 'NONE', *, *, #59, .T. ) ;
#186 = APPROVAL_ROLE ( '' ) ;
#187 = CARTESIAN_POINT ( 'NONE',  ( 0.000000000000000000, 0.000000000000000000, 100.0000000000000000 ) ) ;
#188 = CYLINDRICAL_SURFACE ( 'NONE', #136, 7.750000000000000000 ) ;
#189 = ORIENTED_EDGE ( 'NONE', *, *, #130, .T. ) ;
#190 = DIRECTION ( 'NONE',  ( 0.000000000000000000, 0.000000000000000000, 1.000000000000000000 ) ) ;
#191 = EDGE_CURVE ( 'NONE', #82, #133, #160, .T. ) ;
#192 = CARTESIAN_POINT ( 'NONE',  ( 7.750000000000000000, 9.491012693391985815E-16, 100.0000000000000000 ) ) ;
#193 = ORGANIZATION ( 'NEURÈENÝ', 'NEURÈENÝ', '' ) ;
#194 = EDGE_LOOP ( 'NONE', ( #239, #132 ) ) ;
#195 = ORIENTED_EDGE ( 'NONE', *, *, #98, .F. ) ;
#196 = ORIENTED_EDGE ( 'NONE', *, *, #130, .F. ) ;
#197 = ORIENTED_EDGE ( 'NONE', *, *, #51, .F. ) ;
#198 = PLANE ( 'NONE',  #223 ) ;
#199 =( LENGTH_UNIT ( ) NAMED_UNIT ( * ) SI_UNIT ( .MILLI., .METRE. ) );
#200 = CARTESIAN_POINT ( 'NONE',  ( 0.000000000000000000, 0.000000000000000000, 7.000000000000000000 ) ) ;
#201 = UNCERTAINTY_MEASURE_WITH_UNIT (LENGTH_MEASURE( 1.000000000000000082E-05 ), #199, 'distance_accuracy_value', 'NONE');
#202 = APPROVAL_STATUS ( 'not_yet_approved' ) ;
#203 = DIRECTION ( 'NONE',  ( 0.000000000000000000, 0.000000000000000000, 1.000000000000000000 ) ) ;
#204 = DIRECTION ( 'NONE',  ( 1.000000000000000000, 0.000000000000000000, 0.000000000000000000 ) ) ;
#205 = EDGE_LOOP ( 'NONE', ( #159, #129, #189, #220 ) ) ;
#206 =( GEOMETRIC_REPRESENTATION_CONTEXT ( 3 ) GLOBAL_UNCERTAINTY_ASSIGNED_CONTEXT ( ( #201 ) ) GLOBAL_UNIT_ASSIGNED_CONTEXT ( ( #199, #28, #131 ) ) REPRESENTATION_CONTEXT ( 'NONE', 'WORKASPACE' ) );
#207 = PERSON_AND_ORGANIZATION ( #102, #193 ) ;
#208 = VERTEX_POINT ( 'NONE', #6 ) ;
#209 = ADVANCED_FACE ( 'NONE', ( #13 ), #165, .T. ) ;
#210 = DIRECTION ( 'NONE',  ( 1.000000000000000000, 0.000000000000000000, -0.000000000000000000 ) ) ;
#211 = PERSON_AND_ORGANIZATION_ROLE ( 'creator' ) ;
#212 = CARTESIAN_POINT ( 'NONE',  ( 11.00000000000000000, 1.347111479062088405E-15, 7.000000000000000000 ) ) ;
#213 = APPROVAL_PERSON_ORGANIZATION ( #71, #66, #184 ) ;
#214 = ADVANCED_FACE ( 'NONE', ( #56 ), #77, .T. ) ;
#215 = CIRCLE ( 'NONE', #100, 7.750000000000000000 ) ;
#216 = CC_DESIGN_PERSON_AND_ORGANIZATION_ASSIGNMENT ( #143, #49, ( #22 ) ) ;
#217 = VERTEX_POINT ( 'NONE', #60 ) ;
#218 = LOCAL_TIME ( 10, 49, 17.00000000000000000, #248 ) ;
#219 = ORIENTED_EDGE ( 'NONE', *, *, #25, .T. ) ;
#220 = ORIENTED_EDGE ( 'NONE', *, *, #98, .T. ) ;
#221 = PERSON_AND_ORGANIZATION_ROLE ( 'classification_officer' ) ;
#222 = DATE_AND_TIME ( #37, #180 ) ;
#223 = AXIS2_PLACEMENT_3D ( 'NONE', #87, #73, #230 ) ;
#224 = CARTESIAN_POINT ( 'NONE',  ( 0.000000000000000000, 0.000000000000000000, 7.000000000000000000 ) ) ;
#225 = ORIENTED_EDGE ( 'NONE', *, *, #232, .F. ) ;
#226 = CIRCLE ( 'NONE', #4, 11.00000000000000000 ) ;
#227 = APPROVAL_DATE_TIME ( #90, #101 ) ;
#228 = CARTESIAN_POINT ( 'NONE',  ( 0.000000000000000000, 0.000000000000000000, 100.0000000000000000 ) ) ;
#229 = CIRCLE ( 'NONE', #85, 11.00000000000000000 ) ;
#230 = DIRECTION ( 'NONE',  ( 1.000000000000000000, 0.000000000000000000, -0.000000000000000000 ) ) ;
#231 = CARTESIAN_POINT ( 'NONE',  ( -11.00000000000000000, 0.000000000000000000, 0.000000000000000000 ) ) ;
#232 = EDGE_CURVE ( 'NONE', #166, #163, #226, .T. ) ;
#233 = DIRECTION ( 'NONE',  ( 1.000000000000000000, 0.000000000000000000, -0.000000000000000000 ) ) ;
#234 = DIRECTION ( 'NONE',  ( 1.000000000000000000, 0.000000000000000000, 0.000000000000000000 ) ) ;
#235 = ORIENTED_EDGE ( 'NONE', *, *, #191, .F. ) ;
#236 = AXIS2_PLACEMENT_3D ( 'NONE', #89, #175, #97 ) ;
#237 = PRODUCT_RELATED_PRODUCT_CATEGORY ( 'detail', '', ( #22 ) ) ;
#238 = DIRECTION ( 'NONE',  ( 1.000000000000000000, 0.000000000000000000, 0.000000000000000000 ) ) ;
#239 = ORIENTED_EDGE ( 'NONE', *, *, #59, .F. ) ;
#240 = AXIS2_PLACEMENT_3D ( 'NONE', #120, #203, #52 ) ;
#241 = PERSON_AND_ORGANIZATION_ROLE ( 'design_supplier' ) ;
#242 = CC_DESIGN_SECURITY_CLASSIFICATION ( #151, ( #174 ) ) ;
#243 = EDGE_LOOP ( 'NONE', ( #64, #46 ) ) ;
#244 = APPLICATION_CONTEXT ( 'configuration controlled 3d designs of mechanical parts and assemblies' ) ;
#245 = SHAPE_DEFINITION_REPRESENTATION ( #147, #181 ) ;
#246 = DIRECTION ( 'NONE',  ( 1.000000000000000000, 0.000000000000000000, 0.000000000000000000 ) ) ;
#247 = CARTESIAN_POINT ( 'NONE',  ( 0.000000000000000000, 0.000000000000000000, 7.000000000000000000 ) ) ;
#248 = COORDINATED_UNIVERSAL_TIME_OFFSET ( 1, 0, .AHEAD. ) ;
#249 = DIRECTION ( 'NONE',  ( -0.000000000000000000, -0.000000000000000000, -1.000000000000000000 ) ) ;
#250 = FACE_OUTER_BOUND ( 'NONE', #112, .T. ) ;
#251 = EDGE_CURVE ( 'NONE', #82, #217, #183, .T. ) ;
#252 = CALENDAR_DATE ( 2023, 13, 2 ) ;
#253 = DIRECTION ( 'NONE',  ( 0.000000000000000000, 0.000000000000000000, 1.000000000000000000 ) ) ;
#254 = DIRECTION ( 'NONE',  ( 0.000000000000000000, 0.000000000000000000, 1.000000000000000000 ) ) ;
#255 = EDGE_CURVE ( 'NONE', #217, #122, #215, .T. ) ;
ENDSEC;
END-ISO-10303-21;
