ISO-10303-21;
HEADER;
FILE_DESCRIPTION (( 'STEP AP203' ),
    '1' );
FILE_NAME ('ca72.STEP',
    '2023-02-13T10:42:10',
    ( '' ),
    ( '' ),
    'SwSTEP 2.0',
    'SolidWorks 2019',
    '' );
FILE_SCHEMA (( 'CONFIG_CONTROL_DESIGN' ));
ENDSEC;

DATA;
#1 = ORIENTED_EDGE ( 'NONE', *, *, #148, .T. ) ;
#2 = APPLICATION_PROTOCOL_DEFINITION ( 'international standard', 'config_control_design', 1994, #211 ) ;
#3 = EDGE_CURVE ( 'NONE', #130, #84, #25, .T. ) ;
#4 = VERTEX_POINT ( 'NONE', #217 ) ;
#5 = PERSON_AND_ORGANIZATION_ROLE ( 'creator' ) ;
#6 = ORIENTED_EDGE ( 'NONE', *, *, #37, .F. ) ;
#7 = DIRECTION ( 'NONE',  ( 0.000000000000000000, 0.000000000000000000, 1.000000000000000000 ) ) ;
#8 = DIRECTION ( 'NONE',  ( 0.000000000000000000, 0.000000000000000000, 1.000000000000000000 ) ) ;
#9 = CARTESIAN_POINT ( 'NONE',  ( 0.000000000000000000, 0.000000000000000000, 100.0000000000000000 ) ) ;
#10 = ORGANIZATION ( 'NEURÈENÝ', 'NEURÈENÝ', '' ) ;
#11 = DIRECTION ( 'NONE',  ( 0.000000000000000000, 0.000000000000000000, 1.000000000000000000 ) ) ;
#12 = DIRECTION ( 'NONE',  ( 0.000000000000000000, 0.000000000000000000, 1.000000000000000000 ) ) ;
#13 =( LENGTH_UNIT ( ) NAMED_UNIT ( * ) SI_UNIT ( .MILLI., .METRE. ) );
#14 = EDGE_CURVE ( 'NONE', #130, #42, #36, .T. ) ;
#15 = ADVANCED_FACE ( 'NONE', ( #18 ), #100, .F. ) ;
#16 = ORIENTED_EDGE ( 'NONE', *, *, #137, .F. ) ;
#17 = COORDINATED_UNIVERSAL_TIME_OFFSET ( 1, 0, .AHEAD. ) ;
#18 = FACE_OUTER_BOUND ( 'NONE', #110, .T. ) ;
#19 = AXIS2_PLACEMENT_3D ( 'NONE', #182, #12, #180 ) ;
#20 = PERSON_AND_ORGANIZATION_ROLE ( 'design_supplier' ) ;
#21 = CC_DESIGN_PERSON_AND_ORGANIZATION_ASSIGNMENT ( #177, #5, ( #200 ) ) ;
#22 = ORIENTED_EDGE ( 'NONE', *, *, #49, .F. ) ;
#23 = PERSON_AND_ORGANIZATION ( #128, #10 ) ;
#24 = VERTEX_POINT ( 'NONE', #237 ) ;
#25 = CIRCLE ( 'NONE', #99, 11.00000000000000000 ) ;
#26 = ADVANCED_FACE ( 'NONE', ( #28 ), #227, .T. ) ;
#27 = EDGE_LOOP ( 'NONE', ( #253, #132, #239, #16 ) ) ;
#28 = FACE_OUTER_BOUND ( 'NONE', #221, .T. ) ;
#29 = LINE ( 'NONE', #206, #143 ) ;
#30 = DIRECTION ( 'NONE',  ( -0.000000000000000000, -0.000000000000000000, -1.000000000000000000 ) ) ;
#31 = CARTESIAN_POINT ( 'NONE',  ( 0.000000000000000000, 0.000000000000000000, 0.000000000000000000 ) ) ;
#32 = CARTESIAN_POINT ( 'NONE',  ( 0.000000000000000000, 0.000000000000000000, 100.0000000000000000 ) ) ;
#33 = UNCERTAINTY_MEASURE_WITH_UNIT (LENGTH_MEASURE( 1.000000000000000082E-05 ), #13, 'distance_accuracy_value', 'NONE');
#34 = CC_DESIGN_DATE_AND_TIME_ASSIGNMENT ( #101, #102, ( #126 ) ) ;
#35 = APPROVAL_STATUS ( 'not_yet_approved' ) ;
#36 = LINE ( 'NONE', #112, #86 ) ;
#37 = EDGE_CURVE ( 'NONE', #235, #24, #204, .T. ) ;
#38 = ORIENTED_EDGE ( 'NONE', *, *, #37, .T. ) ;
#39 = APPROVAL_PERSON_ORGANIZATION ( #63, #78, #81 ) ;
#40 = APPROVAL_DATE_TIME ( #154, #95 ) ;
#41 = SHAPE_DEFINITION_REPRESENTATION ( #251, #248 ) ;
#42 = VERTEX_POINT ( 'NONE', #166 ) ;
#43 = PERSON_AND_ORGANIZATION ( #128, #10 ) ;
#44 = VECTOR ( 'NONE', #72, 1000.000000000000000 ) ;
#45 = CARTESIAN_POINT ( 'NONE',  ( 0.000000000000000000, 0.000000000000000000, 0.000000000000000000 ) ) ;
#46 = AXIS2_PLACEMENT_3D ( 'NONE', #93, #8, #167 ) ;
#47 = DIRECTION ( 'NONE',  ( 0.000000000000000000, 0.000000000000000000, 1.000000000000000000 ) ) ;
#48 = FACE_OUTER_BOUND ( 'NONE', #60, .T. ) ;
#49 = EDGE_CURVE ( 'NONE', #176, #24, #77, .T. ) ;
#50 = CARTESIAN_POINT ( 'NONE',  ( 0.000000000000000000, 0.000000000000000000, 7.000000000000000000 ) ) ;
#51 = LOCAL_TIME ( 11, 42, 10.00000000000000000, #17 ) ;
#52 = DIRECTION ( 'NONE',  ( -1.000000000000000000, 0.000000000000000000, 0.000000000000000000 ) ) ;
#53 = CIRCLE ( 'NONE', #168, 7.250000000000000000 ) ;
#54 = AXIS2_PLACEMENT_3D ( 'NONE', #173, #82, #152 ) ;
#55 = ORIENTED_EDGE ( 'NONE', *, *, #165, .F. ) ;
#56 = COORDINATED_UNIVERSAL_TIME_OFFSET ( 1, 0, .AHEAD. ) ;
#57 = PRODUCT_RELATED_PRODUCT_CATEGORY ( 'detail', '', ( #181 ) ) ;
#58 = ORIENTED_EDGE ( 'NONE', *, *, #252, .F. ) ;
#59 = CALENDAR_DATE ( 2023, 13, 2 ) ;
#60 = EDGE_LOOP ( 'NONE', ( #201, #97 ) ) ;
#61 = CALENDAR_DATE ( 2023, 13, 2 ) ;
#62 = EDGE_LOOP ( 'NONE', ( #6, #75, #198, #192 ) ) ;
#63 = PERSON_AND_ORGANIZATION ( #128, #10 ) ;
#64 = LOCAL_TIME ( 11, 42, 10.00000000000000000, #220 ) ;
#65 = ORIENTED_EDGE ( 'NONE', *, *, #165, .T. ) ;
#66 = CALENDAR_DATE ( 2023, 13, 2 ) ;
#67 = ADVANCED_FACE ( 'NONE', ( #124 ), #208, .T. ) ;
#68 = DIRECTION ( 'NONE',  ( 0.000000000000000000, 0.000000000000000000, 1.000000000000000000 ) ) ;
#69 = DIRECTION ( 'NONE',  ( 1.000000000000000000, 0.000000000000000000, -0.000000000000000000 ) ) ;
#70 = CARTESIAN_POINT ( 'NONE',  ( -11.00000000000000000, 0.000000000000000000, 0.000000000000000000 ) ) ;
#71 = DIRECTION ( 'NONE',  ( -0.000000000000000000, -0.000000000000000000, -1.000000000000000000 ) ) ;
#72 = DIRECTION ( 'NONE',  ( -0.000000000000000000, -0.000000000000000000, -1.000000000000000000 ) ) ;
#73 =( NAMED_UNIT ( * ) SI_UNIT ( $, .STERADIAN. ) SOLID_ANGLE_UNIT ( ) );
#74 = CC_DESIGN_PERSON_AND_ORGANIZATION_ASSIGNMENT ( #23, #76, ( #191 ) ) ;
#75 = ORIENTED_EDGE ( 'NONE', *, *, #120, .F. ) ;
#76 = PERSON_AND_ORGANIZATION_ROLE ( 'creator' ) ;
#77 = CIRCLE ( 'NONE', #231, 7.250000000000000000 ) ;
#78 = APPROVAL ( #35, 'NEURÈENÝ' ) ;
#79 = CIRCLE ( 'NONE', #164, 7.250000000000000000 ) ;
#80 = DIRECTION ( 'NONE',  ( 1.000000000000000000, 0.000000000000000000, 0.000000000000000000 ) ) ;
#81 = APPROVAL_ROLE ( '' ) ;
#82 = DIRECTION ( 'NONE',  ( 0.000000000000000000, 0.000000000000000000, 1.000000000000000000 ) ) ;
#83 = DIRECTION ( 'NONE',  ( 0.000000000000000000, 0.000000000000000000, 1.000000000000000000 ) ) ;
#84 = VERTEX_POINT ( 'NONE', #203 ) ;
#85 = APPROVAL_DATE_TIME ( #241, #78 ) ;
#86 = VECTOR ( 'NONE', #195, 1000.000000000000000 ) ;
#87 = ORIENTED_EDGE ( 'NONE', *, *, #120, .T. ) ;
#88 = COORDINATED_UNIVERSAL_TIME_OFFSET ( 1, 0, .AHEAD. ) ;
#89 = DIRECTION ( 'NONE',  ( 0.000000000000000000, 0.000000000000000000, 1.000000000000000000 ) ) ;
#90 = DIRECTION ( 'NONE',  ( 1.000000000000000000, 0.000000000000000000, 0.000000000000000000 ) ) ;
#91 = CYLINDRICAL_SURFACE ( 'NONE', #151, 7.250000000000000000 ) ;
#92 = DIRECTION ( 'NONE',  ( -0.000000000000000000, -0.000000000000000000, -1.000000000000000000 ) ) ;
#93 = CARTESIAN_POINT ( 'NONE',  ( 0.000000000000000000, 0.000000000000000000, 7.000000000000000000 ) ) ;
#94 =( NAMED_UNIT ( * ) PLANE_ANGLE_UNIT ( ) SI_UNIT ( $, .RADIAN. ) );
#95 = APPROVAL ( #131, 'NEURÈENÝ' ) ;
#96 = CALENDAR_DATE ( 2023, 13, 2 ) ;
#97 = ORIENTED_EDGE ( 'NONE', *, *, #3, .T. ) ;
#98 = APPROVAL_ROLE ( '' ) ;
#99 = AXIS2_PLACEMENT_3D ( 'NONE', #233, #255, #80 ) ;
#100 = PLANE ( 'NONE',  #54 ) ;
#101 = DATE_AND_TIME ( #61, #224 ) ;
#102 = DATE_TIME_ROLE ( 'classification_date' ) ;
#103 = CC_DESIGN_SECURITY_CLASSIFICATION ( #126, ( #191 ) ) ;
#104 = DIRECTION ( 'NONE',  ( 0.000000000000000000, 0.000000000000000000, 1.000000000000000000 ) ) ;
#105 = CARTESIAN_POINT ( 'NONE',  ( 0.000000000000000000, 0.000000000000000000, 100.0000000000000000 ) ) ;
#106 = AXIS2_PLACEMENT_3D ( 'NONE', #228, #30, #183 ) ;
#107 = CYLINDRICAL_SURFACE ( 'NONE', #178, 11.00000000000000000 ) ;
#108 = DIRECTION ( 'NONE',  ( 1.000000000000000000, 0.000000000000000000, 0.000000000000000000 ) ) ;
#109 = CARTESIAN_POINT ( 'NONE',  ( -7.250000000000000000, 0.000000000000000000, 100.0000000000000000 ) ) ;
#110 = EDGE_LOOP ( 'NONE', ( #222, #215 ) ) ;
#111 = SECURITY_CLASSIFICATION_LEVEL ( 'unclassified' ) ;
#112 = CARTESIAN_POINT ( 'NONE',  ( 11.00000000000000000, 1.347111479062088405E-15, 7.000000000000000000 ) ) ;
#113 = APPROVAL_DATE_TIME ( #194, #193 ) ;
#114 = APPLICATION_CONTEXT ( 'configuration controlled 3d designs of mechanical parts and assemblies' ) ;
#115 =( GEOMETRIC_REPRESENTATION_CONTEXT ( 3 ) GLOBAL_UNCERTAINTY_ASSIGNED_CONTEXT ( ( #33 ) ) GLOBAL_UNIT_ASSIGNED_CONTEXT ( ( #13, #94, #73 ) ) REPRESENTATION_CONTEXT ( 'NONE', 'WORKASPACE' ) );
#116 = ORIENTED_EDGE ( 'NONE', *, *, #137, .T. ) ;
#117 = CC_DESIGN_PERSON_AND_ORGANIZATION_ASSIGNMENT ( #43, #119, ( #181 ) ) ;
#118 = EDGE_LOOP ( 'NONE', ( #55, #38, #149, #58 ) ) ;
#119 = PERSON_AND_ORGANIZATION_ROLE ( 'design_owner' ) ;
#120 = EDGE_CURVE ( 'NONE', #4, #235, #213, .T. ) ;
#121 = FACE_OUTER_BOUND ( 'NONE', #27, .T. ) ;
#122 = CARTESIAN_POINT ( 'NONE',  ( 7.250000000000000000, 8.878689293818310074E-16, 100.0000000000000000 ) ) ;
#123 = PLANE ( 'NONE',  #125 ) ;
#124 = FACE_OUTER_BOUND ( 'NONE', #62, .T. ) ;
#125 = AXIS2_PLACEMENT_3D ( 'NONE', #160, #245, #69 ) ;
#126 = SECURITY_CLASSIFICATION ( '', '', #111 ) ;
#127 = DIRECTION ( 'NONE',  ( 1.000000000000000000, 0.000000000000000000, 0.000000000000000000 ) ) ;
#128 = PERSON ( 'NEURÈENÝ', 'NEURÈENÝ', 'NEURÈENÝ', ('NEURÈENÝ'), ('NEURÈENÝ'), ('NEURÈENÝ') ) ;
#129 = AXIS2_PLACEMENT_3D ( 'NONE', #31, #7, #205 ) ;
#130 = VERTEX_POINT ( 'NONE', #163 ) ;
#131 = APPROVAL_STATUS ( 'not_yet_approved' ) ;
#132 = ORIENTED_EDGE ( 'NONE', *, *, #14, .T. ) ;
#133 = PERSON_AND_ORGANIZATION ( #128, #10 ) ;
#134 = CIRCLE ( 'NONE', #162, 11.00000000000000000 ) ;
#135 = APPROVAL_STATUS ( 'not_yet_approved' ) ;
#136 = ORIENTED_EDGE ( 'NONE', *, *, #232, .F. ) ;
#137 = EDGE_CURVE ( 'NONE', #84, #243, #29, .T. ) ;
#138 = FACE_BOUND ( 'NONE', #171, .T. ) ;
#139 = PLANE ( 'NONE',  #19 ) ;
#140 = CARTESIAN_POINT ( 'NONE',  ( -7.250000000000000000, 0.000000000000000000, 7.000000000000000000 ) ) ;
#141 = DIRECTION ( 'NONE',  ( 1.000000000000000000, 0.000000000000000000, 0.000000000000000000 ) ) ;
#142 = EDGE_CURVE ( 'NONE', #42, #243, #210, .T. ) ;
#143 = VECTOR ( 'NONE', #179, 1000.000000000000000 ) ;
#144 = CARTESIAN_POINT ( 'NONE',  ( 7.250000000000000000, 8.878689293818310074E-16, 100.0000000000000000 ) ) ;
#145 = CC_DESIGN_DATE_AND_TIME_ASSIGNMENT ( #196, #238, ( #200 ) ) ;
#146 = AXIS2_PLACEMENT_3D ( 'NONE', #216, #83, #170 ) ;
#147 = APPROVAL_PERSON_ORGANIZATION ( #133, #95, #98 ) ;
#148 = EDGE_CURVE ( 'NONE', #243, #42, #134, .T. ) ;
#149 = ORIENTED_EDGE ( 'NONE', *, *, #240, .T. ) ;
#150 = PERSON_AND_ORGANIZATION ( #128, #10 ) ;
#151 = AXIS2_PLACEMENT_3D ( 'NONE', #105, #159, #246 ) ;
#152 = DIRECTION ( 'NONE',  ( 1.000000000000000000, 0.000000000000000000, -0.000000000000000000 ) ) ;
#153 = PERSON_AND_ORGANIZATION ( #128, #10 ) ;
#154 = DATE_AND_TIME ( #59, #64 ) ;
#155 = CIRCLE ( 'NONE', #46, 11.00000000000000000 ) ;
#156 = ORIENTED_EDGE ( 'NONE', *, *, #240, .F. ) ;
#157 = PERSON_AND_ORGANIZATION_ROLE ( 'classification_officer' ) ;
#158 = CC_DESIGN_PERSON_AND_ORGANIZATION_ASSIGNMENT ( #153, #157, ( #126 ) ) ;
#159 = DIRECTION ( 'NONE',  ( -0.000000000000000000, -0.000000000000000000, -1.000000000000000000 ) ) ;
#160 = CARTESIAN_POINT ( 'NONE',  ( 0.000000000000000000, 0.000000000000000000, 7.000000000000000000 ) ) ;
#161 = MANIFOLD_SOLID_BREP ( 'Pøidat vysunutím3', #190 ) ;
#162 = AXIS2_PLACEMENT_3D ( 'NONE', #45, #104, #223 ) ;
#163 = CARTESIAN_POINT ( 'NONE',  ( 11.00000000000000000, 1.347111479062088405E-15, 7.000000000000000000 ) ) ;
#164 = AXIS2_PLACEMENT_3D ( 'NONE', #244, #68, #90 ) ;
#165 = EDGE_CURVE ( 'NONE', #235, #4, #53, .T. ) ;
#166 = CARTESIAN_POINT ( 'NONE',  ( 11.00000000000000000, 1.347111479062088405E-15, 0.000000000000000000 ) ) ;
#167 = DIRECTION ( 'NONE',  ( 1.000000000000000000, 0.000000000000000000, 0.000000000000000000 ) ) ;
#168 = AXIS2_PLACEMENT_3D ( 'NONE', #9, #89, #108 ) ;
#169 = CC_DESIGN_APPROVAL ( #193, ( #191 ) ) ;
#170 = DIRECTION ( 'NONE',  ( 1.000000000000000000, 0.000000000000000000, 0.000000000000000000 ) ) ;
#171 = EDGE_LOOP ( 'NONE', ( #22, #156 ) ) ;
#172 = AXIS2_PLACEMENT_3D ( 'NONE', #32, #11, #141 ) ;
#173 = CARTESIAN_POINT ( 'NONE',  ( 0.000000000000000000, 0.000000000000000000, 0.000000000000000000 ) ) ;
#174 = CALENDAR_DATE ( 2023, 13, 2 ) ;
#175 = ORIENTED_EDGE ( 'NONE', *, *, #14, .F. ) ;
#176 = VERTEX_POINT ( 'NONE', #140 ) ;
#177 = PERSON_AND_ORGANIZATION ( #128, #10 ) ;
#178 = AXIS2_PLACEMENT_3D ( 'NONE', #247, #92, #185 ) ;
#179 = DIRECTION ( 'NONE',  ( -0.000000000000000000, -0.000000000000000000, -1.000000000000000000 ) ) ;
#180 = DIRECTION ( 'NONE',  ( 1.000000000000000000, 0.000000000000000000, -0.000000000000000000 ) ) ;
#181 = PRODUCT ( 'ca72', 'ca72', '', ( #202 ) ) ;
#182 = CARTESIAN_POINT ( 'NONE',  ( 0.000000000000000000, 0.000000000000000000, 100.0000000000000000 ) ) ;
#183 = DIRECTION ( 'NONE',  ( -1.000000000000000000, 0.000000000000000000, 0.000000000000000000 ) ) ;
#184 = LOCAL_TIME ( 11, 42, 10.00000000000000000, #56 ) ;
#185 = DIRECTION ( 'NONE',  ( -1.000000000000000000, 0.000000000000000000, 0.000000000000000000 ) ) ;
#186 = DIRECTION ( 'NONE',  ( -0.000000000000000000, -0.000000000000000000, -1.000000000000000000 ) ) ;
#187 = ADVANCED_FACE ( 'NONE', ( #121 ), #107, .T. ) ;
#188 = APPROVAL_PERSON_ORGANIZATION ( #254, #193, #236 ) ;
#189 = CC_DESIGN_PERSON_AND_ORGANIZATION_ASSIGNMENT ( #150, #20, ( #191 ) ) ;
#190 = CLOSED_SHELL ( 'NONE', ( #212, #187, #26, #250, #15, #67, #229 ) ) ;
#191 = PRODUCT_DEFINITION_FORMATION_WITH_SPECIFIED_SOURCE ( 'LIBOVOLNÝ', '', #181, .NOT_KNOWN. ) ;
#192 = ORIENTED_EDGE ( 'NONE', *, *, #49, .T. ) ;
#193 = APPROVAL ( #135, 'NEURÈENÝ' ) ;
#194 = DATE_AND_TIME ( #174, #207 ) ;
#195 = DIRECTION ( 'NONE',  ( -0.000000000000000000, -0.000000000000000000, -1.000000000000000000 ) ) ;
#196 = DATE_AND_TIME ( #96, #51 ) ;
#197 = VECTOR ( 'NONE', #186, 1000.000000000000000 ) ;
#198 = ORIENTED_EDGE ( 'NONE', *, *, #252, .T. ) ;
#199 = EDGE_LOOP ( 'NONE', ( #87, #65 ) ) ;
#200 = PRODUCT_DEFINITION ( 'NEZNÁMÝ', '', #191, #230 ) ;
#201 = ORIENTED_EDGE ( 'NONE', *, *, #232, .T. ) ;
#202 = MECHANICAL_CONTEXT ( 'NONE', #114, 'mechanical' ) ;
#203 = CARTESIAN_POINT ( 'NONE',  ( -11.00000000000000000, 0.000000000000000000, 7.000000000000000000 ) ) ;
#204 = LINE ( 'NONE', #122, #44 ) ;
#205 = DIRECTION ( 'NONE',  ( 1.000000000000000000, 0.000000000000000000, 0.000000000000000000 ) ) ;
#206 = CARTESIAN_POINT ( 'NONE',  ( -11.00000000000000000, 0.000000000000000000, 7.000000000000000000 ) ) ;
#207 = LOCAL_TIME ( 11, 42, 10.00000000000000000, #88 ) ;
#208 = CYLINDRICAL_SURFACE ( 'NONE', #106, 7.250000000000000000 ) ;
#209 = LINE ( 'NONE', #109, #197 ) ;
#210 = CIRCLE ( 'NONE', #129, 11.00000000000000000 ) ;
#211 = APPLICATION_CONTEXT ( 'configuration controlled 3d designs of mechanical parts and assemblies' ) ;
#212 = ADVANCED_FACE ( 'NONE', ( #226 ), #91, .T. ) ;
#213 = CIRCLE ( 'NONE', #172, 7.250000000000000000 ) ;
#214 = CC_DESIGN_APPROVAL ( #95, ( #126 ) ) ;
#215 = ORIENTED_EDGE ( 'NONE', *, *, #142, .F. ) ;
#216 = CARTESIAN_POINT ( 'NONE',  ( 0.000000000000000000, 0.000000000000000000, 0.000000000000000000 ) ) ;
#217 = CARTESIAN_POINT ( 'NONE',  ( -7.250000000000000000, 0.000000000000000000, 100.0000000000000000 ) ) ;
#218 = APPLICATION_PROTOCOL_DEFINITION ( 'international standard', 'config_control_design', 1994, #114 ) ;
#219 = AXIS2_PLACEMENT_3D ( 'NONE', #225, #71, #52 ) ;
#220 = COORDINATED_UNIVERSAL_TIME_OFFSET ( 1, 0, .AHEAD. ) ;
#221 = EDGE_LOOP ( 'NONE', ( #175, #136, #116, #1 ) ) ;
#222 = ORIENTED_EDGE ( 'NONE', *, *, #148, .F. ) ;
#223 = DIRECTION ( 'NONE',  ( 1.000000000000000000, 0.000000000000000000, 0.000000000000000000 ) ) ;
#224 = LOCAL_TIME ( 11, 42, 10.00000000000000000, #234 ) ;
#225 = CARTESIAN_POINT ( 'NONE',  ( 0.000000000000000000, 0.000000000000000000, 7.000000000000000000 ) ) ;
#226 = FACE_OUTER_BOUND ( 'NONE', #118, .T. ) ;
#227 = CYLINDRICAL_SURFACE ( 'NONE', #219, 11.00000000000000000 ) ;
#228 = CARTESIAN_POINT ( 'NONE',  ( 0.000000000000000000, 0.000000000000000000, 100.0000000000000000 ) ) ;
#229 = ADVANCED_FACE ( 'NONE', ( #249 ), #139, .T. ) ;
#230 = DESIGN_CONTEXT ( 'detailed design', #211, 'design' ) ;
#231 = AXIS2_PLACEMENT_3D ( 'NONE', #50, #47, #127 ) ;
#232 = EDGE_CURVE ( 'NONE', #84, #130, #155, .T. ) ;
#233 = CARTESIAN_POINT ( 'NONE',  ( 0.000000000000000000, 0.000000000000000000, 7.000000000000000000 ) ) ;
#234 = COORDINATED_UNIVERSAL_TIME_OFFSET ( 1, 0, .AHEAD. ) ;
#235 = VERTEX_POINT ( 'NONE', #144 ) ;
#236 = APPROVAL_ROLE ( '' ) ;
#237 = CARTESIAN_POINT ( 'NONE',  ( 7.250000000000000000, 8.878689293818310074E-16, 7.000000000000000000 ) ) ;
#238 = DATE_TIME_ROLE ( 'creation_date' ) ;
#239 = ORIENTED_EDGE ( 'NONE', *, *, #142, .T. ) ;
#240 = EDGE_CURVE ( 'NONE', #24, #176, #79, .T. ) ;
#241 = DATE_AND_TIME ( #66, #184 ) ;
#242 = CC_DESIGN_APPROVAL ( #78, ( #200 ) ) ;
#243 = VERTEX_POINT ( 'NONE', #70 ) ;
#244 = CARTESIAN_POINT ( 'NONE',  ( 0.000000000000000000, 0.000000000000000000, 7.000000000000000000 ) ) ;
#245 = DIRECTION ( 'NONE',  ( 0.000000000000000000, 0.000000000000000000, 1.000000000000000000 ) ) ;
#246 = DIRECTION ( 'NONE',  ( -1.000000000000000000, 0.000000000000000000, 0.000000000000000000 ) ) ;
#247 = CARTESIAN_POINT ( 'NONE',  ( 0.000000000000000000, 0.000000000000000000, 7.000000000000000000 ) ) ;
#248 = ADVANCED_BREP_SHAPE_REPRESENTATION ( 'ca72', ( #161, #146 ), #115 ) ;
#249 = FACE_OUTER_BOUND ( 'NONE', #199, .T. ) ;
#250 = ADVANCED_FACE ( 'NONE', ( #138, #48 ), #123, .T. ) ;
#251 = PRODUCT_DEFINITION_SHAPE ( 'NONE', 'NONE',  #200 ) ;
#252 = EDGE_CURVE ( 'NONE', #4, #176, #209, .T. ) ;
#253 = ORIENTED_EDGE ( 'NONE', *, *, #3, .F. ) ;
#254 = PERSON_AND_ORGANIZATION ( #128, #10 ) ;
#255 = DIRECTION ( 'NONE',  ( 0.000000000000000000, 0.000000000000000000, 1.000000000000000000 ) ) ;
ENDSEC;
END-ISO-10303-21;
