ISO-10303-21;
HEADER;
FILE_DESCRIPTION (( 'STEP AP203' ),
    '1' );
FILE_NAME ('44b3.STEP',
    '2023-02-13T15:51:10',
    ( '' ),
    ( '' ),
    'SwSTEP 2.0',
    'SolidWorks 2019',
    '' );
FILE_SCHEMA (( 'CONFIG_CONTROL_DESIGN' ));
ENDSEC;

DATA;
#1 = ADVANCED_FACE ( 'NONE', ( #188, #50 ), #209, .T. ) ;
#2 = AXIS2_PLACEMENT_3D ( 'NONE', #175, #91, #237 ) ;
#3 = PERSON_AND_ORGANIZATION ( #88, #17 ) ;
#4 = ORIENTED_EDGE ( 'NONE', *, *, #163, .T. ) ;
#5 = LOCAL_TIME ( 16, 51, 10.00000000000000000, #115 ) ;
#6 = CC_DESIGN_PERSON_AND_ORGANIZATION_ASSIGNMENT ( #200, #23, ( #142 ) ) ;
#7 = PERSON_AND_ORGANIZATION_ROLE ( 'creator' ) ;
#8 = VERTEX_POINT ( 'NONE', #169 ) ;
#9 = FACE_OUTER_BOUND ( 'NONE', #181, .T. ) ;
#10 = DIRECTION ( 'NONE',  ( 1.000000000000000000, 0.000000000000000000, -0.000000000000000000 ) ) ;
#11 = EDGE_CURVE ( 'NONE', #162, #145, #127, .T. ) ;
#12 = DIRECTION ( 'NONE',  ( -0.000000000000000000, -0.000000000000000000, -1.000000000000000000 ) ) ;
#13 = DIRECTION ( 'NONE',  ( 1.000000000000000000, 0.000000000000000000, 0.000000000000000000 ) ) ;
#14 = DIRECTION ( 'NONE',  ( 0.000000000000000000, 0.000000000000000000, 1.000000000000000000 ) ) ;
#15 = CIRCLE ( 'NONE', #195, 2.500000000000000000 ) ;
#16 = ORIENTED_EDGE ( 'NONE', *, *, #205, .T. ) ;
#17 = ORGANIZATION ( 'NEURÈENÝ', 'NEURÈENÝ', '' ) ;
#18 = CARTESIAN_POINT ( 'NONE',  ( -5.000000000000000000, 0.000000000000000000, 3.000000000000000000 ) ) ;
#19 = FACE_OUTER_BOUND ( 'NONE', #128, .T. ) ;
#20 = CALENDAR_DATE ( 2023, 13, 2 ) ;
#21 = DATE_AND_TIME ( #41, #157 ) ;
#22 = PERSON_AND_ORGANIZATION_ROLE ( 'creator' ) ;
#23 = PERSON_AND_ORGANIZATION_ROLE ( 'design_owner' ) ;
#24 = EDGE_LOOP ( 'NONE', ( #170, #224 ) ) ;
#25 = APPROVAL_ROLE ( '' ) ;
#26 = SECURITY_CLASSIFICATION ( '', '', #180 ) ;
#27 = CARTESIAN_POINT ( 'NONE',  ( 0.000000000000000000, 0.000000000000000000, 125.0000000000000000 ) ) ;
#28 = DIRECTION ( 'NONE',  ( -0.000000000000000000, -0.000000000000000000, -1.000000000000000000 ) ) ;
#29 = AXIS2_PLACEMENT_3D ( 'NONE', #109, #14, #255 ) ;
#30 = EDGE_CURVE ( 'NONE', #227, #101, #15, .T. ) ;
#31 = APPLICATION_CONTEXT ( 'configuration controlled 3d designs of mechanical parts and assemblies' ) ;
#32 = DIRECTION ( 'NONE',  ( 0.000000000000000000, 0.000000000000000000, 1.000000000000000000 ) ) ;
#33 = CARTESIAN_POINT ( 'NONE',  ( 0.000000000000000000, 0.000000000000000000, 3.000000000000000000 ) ) ;
#34 = DIRECTION ( 'NONE',  ( -0.000000000000000000, -0.000000000000000000, -1.000000000000000000 ) ) ;
#35 = CIRCLE ( 'NONE', #239, 2.500000000000000000 ) ;
#36 = APPROVAL_PERSON_ORGANIZATION ( #202, #174, #59 ) ;
#37 = ADVANCED_FACE ( 'NONE', ( #9 ), #189, .T. ) ;
#38 = DIRECTION ( 'NONE',  ( 1.000000000000000000, 0.000000000000000000, 0.000000000000000000 ) ) ;
#39 = CALENDAR_DATE ( 2023, 13, 2 ) ;
#40 = ORIENTED_EDGE ( 'NONE', *, *, #166, .T. ) ;
#41 = CALENDAR_DATE ( 2023, 13, 2 ) ;
#42 = ORIENTED_EDGE ( 'NONE', *, *, #201, .F. ) ;
#43 = APPROVAL_DATE_TIME ( #21, #183 ) ;
#44 = DIRECTION ( 'NONE',  ( -1.000000000000000000, 0.000000000000000000, 0.000000000000000000 ) ) ;
#45 = DIRECTION ( 'NONE',  ( 1.000000000000000000, 0.000000000000000000, 0.000000000000000000 ) ) ;
#46 = AXIS2_PLACEMENT_3D ( 'NONE', #212, #147, #45 ) ;
#47 = ORIENTED_EDGE ( 'NONE', *, *, #242, .F. ) ;
#48 = EDGE_CURVE ( 'NONE', #65, #8, #230, .T. ) ;
#49 = ORIENTED_EDGE ( 'NONE', *, *, #242, .T. ) ;
#50 = FACE_OUTER_BOUND ( 'NONE', #218, .T. ) ;
#51 = DIRECTION ( 'NONE',  ( 1.000000000000000000, 0.000000000000000000, -0.000000000000000000 ) ) ;
#52 = CC_DESIGN_PERSON_AND_ORGANIZATION_ASSIGNMENT ( #220, #7, ( #99 ) ) ;
#53 = CARTESIAN_POINT ( 'NONE',  ( -2.500000000000000000, 0.000000000000000000, 3.000000000000000000 ) ) ;
#54 = APPLICATION_PROTOCOL_DEFINITION ( 'international standard', 'config_control_design', 1994, #138 ) ;
#55 = CC_DESIGN_APPROVAL ( #174, ( #26 ) ) ;
#56 = APPROVAL_DATE_TIME ( #186, #174 ) ;
#57 = EDGE_LOOP ( 'NONE', ( #184, #68, #40, #248 ) ) ;
#58 = PERSON_AND_ORGANIZATION ( #88, #17 ) ;
#59 = APPROVAL_ROLE ( '' ) ;
#60 = AXIS2_PLACEMENT_3D ( 'NONE', #102, #179, #198 ) ;
#61 = ORIENTED_EDGE ( 'NONE', *, *, #192, .F. ) ;
#62 = DESIGN_CONTEXT ( 'detailed design', #31, 'design' ) ;
#63 = APPLICATION_PROTOCOL_DEFINITION ( 'international standard', 'config_control_design', 1994, #31 ) ;
#64 = ADVANCED_FACE ( 'NONE', ( #251 ), #211, .T. ) ;
#65 = VERTEX_POINT ( 'NONE', #86 ) ;
#66 = DIRECTION ( 'NONE',  ( -0.000000000000000000, -0.000000000000000000, -1.000000000000000000 ) ) ;
#67 = DIRECTION ( 'NONE',  ( 0.000000000000000000, 0.000000000000000000, 1.000000000000000000 ) ) ;
#68 = ORIENTED_EDGE ( 'NONE', *, *, #192, .T. ) ;
#69 = MANIFOLD_SOLID_BREP ( 'Pøidat vysunutím3', #213 ) ;
#70 = CARTESIAN_POINT ( 'NONE',  ( 0.000000000000000000, 0.000000000000000000, 3.000000000000000000 ) ) ;
#71 = CARTESIAN_POINT ( 'NONE',  ( -5.000000000000000000, 0.000000000000000000, 0.000000000000000000 ) ) ;
#72 = DIRECTION ( 'NONE',  ( -0.000000000000000000, -0.000000000000000000, -1.000000000000000000 ) ) ;
#73 =( LENGTH_UNIT ( ) NAMED_UNIT ( * ) SI_UNIT ( .MILLI., .METRE. ) );
#74 =( NAMED_UNIT ( * ) PLANE_ANGLE_UNIT ( ) SI_UNIT ( $, .RADIAN. ) );
#75 = CC_DESIGN_PERSON_AND_ORGANIZATION_ASSIGNMENT ( #98, #223, ( #152 ) ) ;
#76 = CARTESIAN_POINT ( 'NONE',  ( 0.000000000000000000, 0.000000000000000000, 125.0000000000000000 ) ) ;
#77 = VECTOR ( 'NONE', #12, 1000.000000000000000 ) ;
#78 = COORDINATED_UNIVERSAL_TIME_OFFSET ( 1, 0, .AHEAD. ) ;
#79 = ORIENTED_EDGE ( 'NONE', *, *, #148, .T. ) ;
#80 = PRODUCT_RELATED_PRODUCT_CATEGORY ( 'detail', '', ( #142 ) ) ;
#81 = DATE_AND_TIME ( #20, #129 ) ;
#82 = VERTEX_POINT ( 'NONE', #187 ) ;
#83 = AXIS2_PLACEMENT_3D ( 'NONE', #27, #67, #167 ) ;
#84 = MECHANICAL_CONTEXT ( 'NONE', #138, 'mechanical' ) ;
#85 = SHAPE_DEFINITION_REPRESENTATION ( #247, #210 ) ;
#86 = CARTESIAN_POINT ( 'NONE',  ( 5.000000000000000000, 6.123233995736766282E-16, 3.000000000000000000 ) ) ;
#87 = DIRECTION ( 'NONE',  ( 0.000000000000000000, 0.000000000000000000, 1.000000000000000000 ) ) ;
#88 = PERSON ( 'NEURÈENÝ', 'NEURÈENÝ', 'NEURÈENÝ', ('NEURÈENÝ'), ('NEURÈENÝ'), ('NEURÈENÝ') ) ;
#89 = ADVANCED_FACE ( 'NONE', ( #168 ), #149, .T. ) ;
#90 = PLANE ( 'NONE',  #146 ) ;
#91 = DIRECTION ( 'NONE',  ( -0.000000000000000000, -0.000000000000000000, -1.000000000000000000 ) ) ;
#92 = DIRECTION ( 'NONE',  ( 0.000000000000000000, 0.000000000000000000, 1.000000000000000000 ) ) ;
#93 = CIRCLE ( 'NONE', #122, 5.000000000000000000 ) ;
#94 = CC_DESIGN_DATE_AND_TIME_ASSIGNMENT ( #165, #222, ( #99 ) ) ;
#95 = CARTESIAN_POINT ( 'NONE',  ( 2.500000000000000000, 3.061616997868382648E-16, 125.0000000000000000 ) ) ;
#96 = APPROVAL_DATE_TIME ( #81, #125 ) ;
#97 = CIRCLE ( 'NONE', #249, 2.500000000000000000 ) ;
#98 = PERSON_AND_ORGANIZATION ( #88, #17 ) ;
#99 = PRODUCT_DEFINITION ( 'NEZNÁMÝ', '', #152, #62 ) ;
#100 = DATE_AND_TIME ( #39, #204 ) ;
#101 = VERTEX_POINT ( 'NONE', #53 ) ;
#102 = CARTESIAN_POINT ( 'NONE',  ( 0.000000000000000000, 0.000000000000000000, 0.000000000000000000 ) ) ;
#103 = EDGE_LOOP ( 'NONE', ( #141, #79, #118, #47 ) ) ;
#104 = CALENDAR_DATE ( 2023, 13, 2 ) ;
#105 = ORIENTED_EDGE ( 'NONE', *, *, #11, .F. ) ;
#106 = AXIS2_PLACEMENT_3D ( 'NONE', #176, #253, #13 ) ;
#107 = CARTESIAN_POINT ( 'NONE',  ( 0.000000000000000000, 0.000000000000000000, 3.000000000000000000 ) ) ;
#108 = EDGE_LOOP ( 'NONE', ( #241, #42, #49, #206 ) ) ;
#109 = CARTESIAN_POINT ( 'NONE',  ( 0.000000000000000000, 0.000000000000000000, 125.0000000000000000 ) ) ;
#110 = CYLINDRICAL_SURFACE ( 'NONE', #2, 5.000000000000000000 ) ;
#111 = AXIS2_PLACEMENT_3D ( 'NONE', #70, #126, #130 ) ;
#112 = CARTESIAN_POINT ( 'NONE',  ( 0.000000000000000000, 0.000000000000000000, 0.000000000000000000 ) ) ;
#113 = CYLINDRICAL_SURFACE ( 'NONE', #236, 5.000000000000000000 ) ;
#114 = DIRECTION ( 'NONE',  ( -1.000000000000000000, 0.000000000000000000, 0.000000000000000000 ) ) ;
#115 = COORDINATED_UNIVERSAL_TIME_OFFSET ( 1, 0, .AHEAD. ) ;
#116 =( GEOMETRIC_REPRESENTATION_CONTEXT ( 3 ) GLOBAL_UNCERTAINTY_ASSIGNED_CONTEXT ( ( #164 ) ) GLOBAL_UNIT_ASSIGNED_CONTEXT ( ( #73, #74, #156 ) ) REPRESENTATION_CONTEXT ( 'NONE', 'WORKASPACE' ) );
#117 = DATE_TIME_ROLE ( 'classification_date' ) ;
#118 = ORIENTED_EDGE ( 'NONE', *, *, #30, .T. ) ;
#119 = PERSON_AND_ORGANIZATION_ROLE ( 'classification_officer' ) ;
#120 = ORIENTED_EDGE ( 'NONE', *, *, #166, .F. ) ;
#121 = VECTOR ( 'NONE', #155, 1000.000000000000000 ) ;
#122 = AXIS2_PLACEMENT_3D ( 'NONE', #178, #254, #38 ) ;
#123 = ORIENTED_EDGE ( 'NONE', *, *, #234, .T. ) ;
#124 = EDGE_LOOP ( 'NONE', ( #105, #120 ) ) ;
#125 = APPROVAL ( #143, 'NEURÈENÝ' ) ;
#126 = DIRECTION ( 'NONE',  ( 0.000000000000000000, 0.000000000000000000, 1.000000000000000000 ) ) ;
#127 = CIRCLE ( 'NONE', #46, 5.000000000000000000 ) ;
#128 = EDGE_LOOP ( 'NONE', ( #61, #203, #16, #160 ) ) ;
#129 = LOCAL_TIME ( 16, 51, 10.00000000000000000, #158 ) ;
#130 = DIRECTION ( 'NONE',  ( 1.000000000000000000, 0.000000000000000000, 0.000000000000000000 ) ) ;
#131 = LINE ( 'NONE', #217, #77 ) ;
#132 = VECTOR ( 'NONE', #72, 1000.000000000000000 ) ;
#133 = DIRECTION ( 'NONE',  ( -0.000000000000000000, -0.000000000000000000, -1.000000000000000000 ) ) ;
#134 = EDGE_CURVE ( 'NONE', #101, #227, #35, .T. ) ;
#135 = FACE_OUTER_BOUND ( 'NONE', #57, .T. ) ;
#136 = DIRECTION ( 'NONE',  ( 0.000000000000000000, 0.000000000000000000, 1.000000000000000000 ) ) ;
#137 = CARTESIAN_POINT ( 'NONE',  ( 5.000000000000000000, 6.123233995736766282E-16, 0.000000000000000000 ) ) ;
#138 = APPLICATION_CONTEXT ( 'configuration controlled 3d designs of mechanical parts and assemblies' ) ;
#139 = ORIENTED_EDGE ( 'NONE', *, *, #48, .T. ) ;
#140 = PERSON_AND_ORGANIZATION ( #88, #17 ) ;
#141 = ORIENTED_EDGE ( 'NONE', *, *, #234, .F. ) ;
#142 = PRODUCT ( '44b3', '44b3', '', ( #84 ) ) ;
#143 = APPROVAL_STATUS ( 'not_yet_approved' ) ;
#144 = ADVANCED_FACE ( 'NONE', ( #215 ), #90, .F. ) ;
#145 = VERTEX_POINT ( 'NONE', #137 ) ;
#146 = AXIS2_PLACEMENT_3D ( 'NONE', #112, #136, #51 ) ;
#147 = DIRECTION ( 'NONE',  ( 0.000000000000000000, 0.000000000000000000, 1.000000000000000000 ) ) ;
#148 = EDGE_CURVE ( 'NONE', #231, #227, #196, .T. ) ;
#149 = CYLINDRICAL_SURFACE ( 'NONE', #221, 2.500000000000000000 ) ;
#150 = DIRECTION ( 'NONE',  ( -1.000000000000000000, 0.000000000000000000, 0.000000000000000000 ) ) ;
#151 = AXIS2_PLACEMENT_3D ( 'NONE', #153, #66, #44 ) ;
#152 = PRODUCT_DEFINITION_FORMATION_WITH_SPECIFIED_SOURCE ( 'LIBOVOLNÝ', '', #142, .NOT_KNOWN. ) ;
#153 = CARTESIAN_POINT ( 'NONE',  ( 0.000000000000000000, 0.000000000000000000, 125.0000000000000000 ) ) ;
#154 = DIRECTION ( 'NONE',  ( 1.000000000000000000, 0.000000000000000000, 0.000000000000000000 ) ) ;
#155 = DIRECTION ( 'NONE',  ( -0.000000000000000000, -0.000000000000000000, -1.000000000000000000 ) ) ;
#156 =( NAMED_UNIT ( * ) SI_UNIT ( $, .STERADIAN. ) SOLID_ANGLE_UNIT ( ) );
#157 = LOCAL_TIME ( 16, 51, 10.00000000000000000, #244 ) ;
#158 = COORDINATED_UNIVERSAL_TIME_OFFSET ( 1, 0, .AHEAD. ) ;
#159 = PERSON_AND_ORGANIZATION ( #88, #17 ) ;
#160 = ORIENTED_EDGE ( 'NONE', *, *, #11, .T. ) ;
#161 = COORDINATED_UNIVERSAL_TIME_OFFSET ( 1, 0, .AHEAD. ) ;
#162 = VERTEX_POINT ( 'NONE', #71 ) ;
#163 = EDGE_CURVE ( 'NONE', #8, #65, #199, .T. ) ;
#164 = UNCERTAINTY_MEASURE_WITH_UNIT (LENGTH_MEASURE( 1.000000000000000082E-05 ), #73, 'distance_accuracy_value', 'NONE');
#165 = DATE_AND_TIME ( #240, #229 ) ;
#166 = EDGE_CURVE ( 'NONE', #145, #162, #93, .T. ) ;
#167 = DIRECTION ( 'NONE',  ( 1.000000000000000000, 0.000000000000000000, -0.000000000000000000 ) ) ;
#168 = FACE_OUTER_BOUND ( 'NONE', #108, .T. ) ;
#169 = CARTESIAN_POINT ( 'NONE',  ( -5.000000000000000000, 0.000000000000000000, 3.000000000000000000 ) ) ;
#170 = ORIENTED_EDGE ( 'NONE', *, *, #134, .F. ) ;
#171 = CC_DESIGN_PERSON_AND_ORGANIZATION_ASSIGNMENT ( #3, #119, ( #26 ) ) ;
#172 = CARTESIAN_POINT ( 'NONE',  ( -2.500000000000000000, 0.000000000000000000, 125.0000000000000000 ) ) ;
#173 = CARTESIAN_POINT ( 'NONE',  ( 2.500000000000000000, 3.061616997868382648E-16, 3.000000000000000000 ) ) ;
#174 = APPROVAL ( #243, 'NEURÈENÝ' ) ;
#175 = CARTESIAN_POINT ( 'NONE',  ( 0.000000000000000000, 0.000000000000000000, 3.000000000000000000 ) ) ;
#176 = CARTESIAN_POINT ( 'NONE',  ( 0.000000000000000000, 0.000000000000000000, 3.000000000000000000 ) ) ;
#177 = ADVANCED_FACE ( 'NONE', ( #19 ), #110, .T. ) ;
#178 = CARTESIAN_POINT ( 'NONE',  ( 0.000000000000000000, 0.000000000000000000, 0.000000000000000000 ) ) ;
#179 = DIRECTION ( 'NONE',  ( 0.000000000000000000, 0.000000000000000000, 1.000000000000000000 ) ) ;
#180 = SECURITY_CLASSIFICATION_LEVEL ( 'unclassified' ) ;
#181 = EDGE_LOOP ( 'NONE', ( #182, #123 ) ) ;
#182 = ORIENTED_EDGE ( 'NONE', *, *, #201, .T. ) ;
#183 = APPROVAL ( #225, 'NEURÈENÝ' ) ;
#184 = ORIENTED_EDGE ( 'NONE', *, *, #48, .F. ) ;
#185 = CC_DESIGN_APPROVAL ( #183, ( #152 ) ) ;
#186 = DATE_AND_TIME ( #104, #5 ) ;
#187 = CARTESIAN_POINT ( 'NONE',  ( -2.500000000000000000, 0.000000000000000000, 125.0000000000000000 ) ) ;
#188 = FACE_BOUND ( 'NONE', #24, .T. ) ;
#189 = PLANE ( 'NONE',  #83 ) ;
#190 = ADVANCED_FACE ( 'NONE', ( #135 ), #113, .T. ) ;
#191 = CC_DESIGN_SECURITY_CLASSIFICATION ( #26, ( #152 ) ) ;
#192 = EDGE_CURVE ( 'NONE', #65, #145, #131, .T. ) ;
#193 = DIRECTION ( 'NONE',  ( 1.000000000000000000, 0.000000000000000000, 0.000000000000000000 ) ) ;
#194 = DIRECTION ( 'NONE',  ( 0.000000000000000000, 0.000000000000000000, 1.000000000000000000 ) ) ;
#195 = AXIS2_PLACEMENT_3D ( 'NONE', #107, #32, #250 ) ;
#196 = LINE ( 'NONE', #235, #121 ) ;
#197 = CIRCLE ( 'NONE', #29, 2.500000000000000000 ) ;
#198 = DIRECTION ( 'NONE',  ( 1.000000000000000000, 0.000000000000000000, 0.000000000000000000 ) ) ;
#199 = CIRCLE ( 'NONE', #106, 5.000000000000000000 ) ;
#200 = PERSON_AND_ORGANIZATION ( #88, #17 ) ;
#201 = EDGE_CURVE ( 'NONE', #82, #231, #97, .T. ) ;
#202 = PERSON_AND_ORGANIZATION ( #88, #17 ) ;
#203 = ORIENTED_EDGE ( 'NONE', *, *, #163, .F. ) ;
#204 = LOCAL_TIME ( 16, 51, 10.00000000000000000, #161 ) ;
#205 = EDGE_CURVE ( 'NONE', #8, #162, #238, .T. ) ;
#206 = ORIENTED_EDGE ( 'NONE', *, *, #134, .T. ) ;
#207 = AXIS2_PLACEMENT_3D ( 'NONE', #252, #87, #10 ) ;
#208 = CARTESIAN_POINT ( 'NONE',  ( 0.000000000000000000, 0.000000000000000000, 125.0000000000000000 ) ) ;
#209 = PLANE ( 'NONE',  #207 ) ;
#210 = ADVANCED_BREP_SHAPE_REPRESENTATION ( '44b3', ( #69, #60 ), #116 ) ;
#211 = CYLINDRICAL_SURFACE ( 'NONE', #151, 2.500000000000000000 ) ;
#212 = CARTESIAN_POINT ( 'NONE',  ( 0.000000000000000000, 0.000000000000000000, 0.000000000000000000 ) ) ;
#213 = CLOSED_SHELL ( 'NONE', ( #64, #190, #177, #1, #144, #89, #37 ) ) ;
#214 = LINE ( 'NONE', #172, #132 ) ;
#215 = FACE_OUTER_BOUND ( 'NONE', #124, .T. ) ;
#216 = CARTESIAN_POINT ( 'NONE',  ( 0.000000000000000000, 0.000000000000000000, 3.000000000000000000 ) ) ;
#217 = CARTESIAN_POINT ( 'NONE',  ( 5.000000000000000000, 6.123233995736766282E-16, 3.000000000000000000 ) ) ;
#218 = EDGE_LOOP ( 'NONE', ( #4, #139 ) ) ;
#219 = CC_DESIGN_DATE_AND_TIME_ASSIGNMENT ( #100, #117, ( #26 ) ) ;
#220 = PERSON_AND_ORGANIZATION ( #88, #17 ) ;
#221 = AXIS2_PLACEMENT_3D ( 'NONE', #208, #28, #150 ) ;
#222 = DATE_TIME_ROLE ( 'creation_date' ) ;
#223 = PERSON_AND_ORGANIZATION_ROLE ( 'design_supplier' ) ;
#224 = ORIENTED_EDGE ( 'NONE', *, *, #30, .F. ) ;
#225 = APPROVAL_STATUS ( 'not_yet_approved' ) ;
#226 = APPROVAL_PERSON_ORGANIZATION ( #58, #183, #246 ) ;
#227 = VERTEX_POINT ( 'NONE', #173 ) ;
#228 = CC_DESIGN_PERSON_AND_ORGANIZATION_ASSIGNMENT ( #140, #22, ( #152 ) ) ;
#229 = LOCAL_TIME ( 16, 51, 10.00000000000000000, #78 ) ;
#230 = CIRCLE ( 'NONE', #111, 5.000000000000000000 ) ;
#231 = VERTEX_POINT ( 'NONE', #95 ) ;
#232 = VECTOR ( 'NONE', #133, 1000.000000000000000 ) ;
#233 = CC_DESIGN_APPROVAL ( #125, ( #99 ) ) ;
#234 = EDGE_CURVE ( 'NONE', #231, #82, #197, .T. ) ;
#235 = CARTESIAN_POINT ( 'NONE',  ( 2.500000000000000000, 3.061616997868382648E-16, 125.0000000000000000 ) ) ;
#236 = AXIS2_PLACEMENT_3D ( 'NONE', #216, #34, #114 ) ;
#237 = DIRECTION ( 'NONE',  ( -1.000000000000000000, 0.000000000000000000, 0.000000000000000000 ) ) ;
#238 = LINE ( 'NONE', #18, #232 ) ;
#239 = AXIS2_PLACEMENT_3D ( 'NONE', #33, #92, #193 ) ;
#240 = CALENDAR_DATE ( 2023, 13, 2 ) ;
#241 = ORIENTED_EDGE ( 'NONE', *, *, #148, .F. ) ;
#242 = EDGE_CURVE ( 'NONE', #82, #101, #214, .T. ) ;
#243 = APPROVAL_STATUS ( 'not_yet_approved' ) ;
#244 = COORDINATED_UNIVERSAL_TIME_OFFSET ( 1, 0, .AHEAD. ) ;
#245 = APPROVAL_PERSON_ORGANIZATION ( #159, #125, #25 ) ;
#246 = APPROVAL_ROLE ( '' ) ;
#247 = PRODUCT_DEFINITION_SHAPE ( 'NONE', 'NONE',  #99 ) ;
#248 = ORIENTED_EDGE ( 'NONE', *, *, #205, .F. ) ;
#249 = AXIS2_PLACEMENT_3D ( 'NONE', #76, #194, #154 ) ;
#250 = DIRECTION ( 'NONE',  ( 1.000000000000000000, 0.000000000000000000, 0.000000000000000000 ) ) ;
#251 = FACE_OUTER_BOUND ( 'NONE', #103, .T. ) ;
#252 = CARTESIAN_POINT ( 'NONE',  ( 0.000000000000000000, 0.000000000000000000, 3.000000000000000000 ) ) ;
#253 = DIRECTION ( 'NONE',  ( 0.000000000000000000, 0.000000000000000000, 1.000000000000000000 ) ) ;
#254 = DIRECTION ( 'NONE',  ( 0.000000000000000000, 0.000000000000000000, 1.000000000000000000 ) ) ;
#255 = DIRECTION ( 'NONE',  ( 1.000000000000000000, 0.000000000000000000, 0.000000000000000000 ) ) ;
ENDSEC;
END-ISO-10303-21;
