ISO-10303-21;
HEADER;
FILE_DESCRIPTION (( 'STEP AP203' ),
    '1' );
FILE_NAME ('3d92.STEP',
    '2022-07-07T17:48:02',
    ( '' ),
    ( '' ),
    'SwSTEP 2.0',
    'SolidWorks 2019',
    '' );
FILE_SCHEMA (( 'CONFIG_CONTROL_DESIGN' ));
ENDSEC;

DATA;
#1 = DATE_AND_TIME ( #214, #142 ) ;
#2 =( NAMED_UNIT ( * ) PLANE_ANGLE_UNIT ( ) SI_UNIT ( $, .RADIAN. ) );
#3 = APPROVAL_STATUS ( 'not_yet_approved' ) ;
#4 = ORIENTED_EDGE ( 'NONE', *, *, #242, .T. ) ;
#5 = ORIENTED_EDGE ( 'NONE', *, *, #220, .F. ) ;
#6 = EDGE_LOOP ( 'NONE', ( #107, #12 ) ) ;
#7 = EDGE_CURVE ( 'NONE', #14, #109, #34, .T. ) ;
#8 = AXIS2_PLACEMENT_3D ( 'NONE', #130, #60, #124 ) ;
#9 = ADVANCED_FACE ( 'NONE', ( #118 ), #94, .T. ) ;
#10 = DIRECTION ( 'NONE',  ( 0.000000000000000000, 0.000000000000000000, 1.000000000000000000 ) ) ;
#11 = ORIENTED_EDGE ( 'NONE', *, *, #112, .F. ) ;
#12 = ORIENTED_EDGE ( 'NONE', *, *, #32, .T. ) ;
#13 = DIRECTION ( 'NONE',  ( 1.000000000000000000, 0.000000000000000000, 0.000000000000000000 ) ) ;
#14 = VERTEX_POINT ( 'NONE', #52 ) ;
#15 = CIRCLE ( 'NONE', #179, 4.000000000000000000 ) ;
#16 = VECTOR ( 'NONE', #139, 1000.000000000000000 ) ;
#17 = EDGE_CURVE ( 'NONE', #217, #246, #237, .T. ) ;
#18 = DIRECTION ( 'NONE',  ( 1.000000000000000000, 0.000000000000000000, -0.000000000000000000 ) ) ;
#19 = LINE ( 'NONE', #98, #201 ) ;
#20 = LOCAL_TIME ( 19, 48, 2.000000000000000000, #36 ) ;
#21 = COORDINATED_UNIVERSAL_TIME_OFFSET ( 1, 0, .AHEAD. ) ;
#22 = LINE ( 'NONE', #236, #16 ) ;
#23 = PERSON_AND_ORGANIZATION ( #102, #131 ) ;
#24 = AXIS2_PLACEMENT_3D ( 'NONE', #192, #157, #18 ) ;
#25 = ORIENTED_EDGE ( 'NONE', *, *, #7, .F. ) ;
#26 = LOCAL_TIME ( 19, 48, 2.000000000000000000, #126 ) ;
#27 = EDGE_LOOP ( 'NONE', ( #190, #187, #183, #250 ) ) ;
#28 = ADVANCED_FACE ( 'NONE', ( #46 ), #51, .T. ) ;
#29 = DIRECTION ( 'NONE',  ( 1.000000000000000000, 0.000000000000000000, -0.000000000000000000 ) ) ;
#30 = PRODUCT ( '3d92', '3d92', '', ( #198 ) ) ;
#31 = VERTEX_POINT ( 'NONE', #91 ) ;
#32 = EDGE_CURVE ( 'NONE', #109, #14, #49, .T. ) ;
#33 = APPROVAL_PERSON_ORGANIZATION ( #211, #171, #59 ) ;
#34 = CIRCLE ( 'NONE', #225, 2.250000000000000000 ) ;
#35 = PLANE ( 'NONE',  #24 ) ;
#36 = COORDINATED_UNIVERSAL_TIME_OFFSET ( 1, 0, .AHEAD. ) ;
#37 =( NAMED_UNIT ( * ) SI_UNIT ( $, .STERADIAN. ) SOLID_ANGLE_UNIT ( ) );
#38 = DIRECTION ( 'NONE',  ( 1.000000000000000000, 0.000000000000000000, 0.000000000000000000 ) ) ;
#39 = DIRECTION ( 'NONE',  ( -1.000000000000000000, 0.000000000000000000, 0.000000000000000000 ) ) ;
#40 = APPROVAL_DATE_TIME ( #212, #171 ) ;
#41 = DIRECTION ( 'NONE',  ( 0.000000000000000000, 0.000000000000000000, 1.000000000000000000 ) ) ;
#42 = APPROVAL_DATE_TIME ( #1, #133 ) ;
#43 = CC_DESIGN_DATE_AND_TIME_ASSIGNMENT ( #141, #101, ( #108 ) ) ;
#44 = VECTOR ( 'NONE', #167, 1000.000000000000000 ) ;
#45 = ORIENTED_EDGE ( 'NONE', *, *, #47, .F. ) ;
#46 = FACE_OUTER_BOUND ( 'NONE', #247, .T. ) ;
#47 = EDGE_CURVE ( 'NONE', #114, #166, #193, .T. ) ;
#48 = CARTESIAN_POINT ( 'NONE',  ( 2.250000000000000000, 2.755455298081544285E-16, 403.0000000000000000 ) ) ;
#49 = CIRCLE ( 'NONE', #75, 2.250000000000000000 ) ;
#50 = CIRCLE ( 'NONE', #111, 2.250000000000000000 ) ;
#51 = CYLINDRICAL_SURFACE ( 'NONE', #64, 4.000000000000000000 ) ;
#52 = CARTESIAN_POINT ( 'NONE',  ( -2.250000000000000000, 0.000000000000000000, 403.0000000000000000 ) ) ;
#53 = UNCERTAINTY_MEASURE_WITH_UNIT (LENGTH_MEASURE( 1.000000000000000082E-05 ), #77, 'distance_accuracy_value', 'NONE');
#54 = LINE ( 'NONE', #215, #241 ) ;
#55 = PERSON_AND_ORGANIZATION_ROLE ( 'classification_officer' ) ;
#56 = CC_DESIGN_PERSON_AND_ORGANIZATION_ASSIGNMENT ( #81, #57, ( #108 ) ) ;
#57 = PERSON_AND_ORGANIZATION_ROLE ( 'creator' ) ;
#58 = FACE_OUTER_BOUND ( 'NONE', #6, .T. ) ;
#59 = APPROVAL_ROLE ( '' ) ;
#60 = DIRECTION ( 'NONE',  ( 0.000000000000000000, 0.000000000000000000, 1.000000000000000000 ) ) ;
#61 = CARTESIAN_POINT ( 'NONE',  ( 0.000000000000000000, 0.000000000000000000, 0.000000000000000000 ) ) ;
#62 = DIRECTION ( 'NONE',  ( -0.000000000000000000, -0.000000000000000000, -1.000000000000000000 ) ) ;
#63 = CC_DESIGN_PERSON_AND_ORGANIZATION_ASSIGNMENT ( #238, #83, ( #30 ) ) ;
#64 = AXIS2_PLACEMENT_3D ( 'NONE', #132, #134, #69 ) ;
#65 = MANIFOLD_SOLID_BREP ( 'Pøidat vysunutím3', #178 ) ;
#66 = PRODUCT_DEFINITION_FORMATION_WITH_SPECIFIED_SOURCE ( 'LIBOVOLNÝ', '', #30, .NOT_KNOWN. ) ;
#67 = ORIENTED_EDGE ( 'NONE', *, *, #220, .T. ) ;
#68 = AXIS2_PLACEMENT_3D ( 'NONE', #248, #10, #244 ) ;
#69 = DIRECTION ( 'NONE',  ( -1.000000000000000000, 0.000000000000000000, 0.000000000000000000 ) ) ;
#70 = CARTESIAN_POINT ( 'NONE',  ( 0.000000000000000000, 0.000000000000000000, 403.0000000000000000 ) ) ;
#71 = CARTESIAN_POINT ( 'NONE',  ( 0.000000000000000000, 0.000000000000000000, 0.000000000000000000 ) ) ;
#72 = CARTESIAN_POINT ( 'NONE',  ( 0.000000000000000000, 0.000000000000000000, 403.0000000000000000 ) ) ;
#73 = ADVANCED_FACE ( 'NONE', ( #129 ), #203, .F. ) ;
#74 = DIRECTION ( 'NONE',  ( -0.000000000000000000, -0.000000000000000000, -1.000000000000000000 ) ) ;
#75 = AXIS2_PLACEMENT_3D ( 'NONE', #70, #144, #145 ) ;
#76 = LOCAL_TIME ( 19, 48, 2.000000000000000000, #104 ) ;
#77 =( LENGTH_UNIT ( ) NAMED_UNIT ( * ) SI_UNIT ( .MILLI., .METRE. ) );
#78 = EDGE_CURVE ( 'NONE', #166, #114, #88, .T. ) ;
#79 = APPROVAL_STATUS ( 'not_yet_approved' ) ;
#80 = CARTESIAN_POINT ( 'NONE',  ( -2.250000000000000000, 0.000000000000000000, 3.000000000000000000 ) ) ;
#81 = PERSON_AND_ORGANIZATION ( #102, #131 ) ;
#82 = DIRECTION ( 'NONE',  ( 1.000000000000000000, 0.000000000000000000, 0.000000000000000000 ) ) ;
#83 = PERSON_AND_ORGANIZATION_ROLE ( 'design_owner' ) ;
#84 = FACE_BOUND ( 'NONE', #204, .T. ) ;
#85 = ORIENTED_EDGE ( 'NONE', *, *, #128, .F. ) ;
#86 = EDGE_LOOP ( 'NONE', ( #245, #25, #4, #67 ) ) ;
#87 = ORIENTED_EDGE ( 'NONE', *, *, #47, .T. ) ;
#88 = CIRCLE ( 'NONE', #110, 4.000000000000000000 ) ;
#89 = PRODUCT_RELATED_PRODUCT_CATEGORY ( 'detail', '', ( #30 ) ) ;
#90 = CC_DESIGN_SECURITY_CLASSIFICATION ( #127, ( #66 ) ) ;
#91 = CARTESIAN_POINT ( 'NONE',  ( 2.250000000000000000, 2.755455298081544285E-16, 3.000000000000000000 ) ) ;
#92 = ORIENTED_EDGE ( 'NONE', *, *, #78, .T. ) ;
#93 = ORIENTED_EDGE ( 'NONE', *, *, #128, .T. ) ;
#94 = CYLINDRICAL_SURFACE ( 'NONE', #160, 2.250000000000000000 ) ;
#95 = ORIENTED_EDGE ( 'NONE', *, *, #125, .F. ) ;
#96 = FACE_OUTER_BOUND ( 'NONE', #162, .T. ) ;
#97 = APPROVAL_STATUS ( 'not_yet_approved' ) ;
#98 = CARTESIAN_POINT ( 'NONE',  ( -4.000000000000000000, 0.000000000000000000, 3.000000000000000000 ) ) ;
#99 = PERSON_AND_ORGANIZATION ( #102, #131 ) ;
#100 = LINE ( 'NONE', #213, #44 ) ;
#101 = DATE_TIME_ROLE ( 'creation_date' ) ;
#102 = PERSON ( 'NEURÈENÝ', 'NEURÈENÝ', 'NEURÈENÝ', ('NEURÈENÝ'), ('NEURÈENÝ'), ('NEURÈENÝ') ) ;
#103 = DIRECTION ( 'NONE',  ( 1.000000000000000000, 0.000000000000000000, 0.000000000000000000 ) ) ;
#104 = COORDINATED_UNIVERSAL_TIME_OFFSET ( 1, 0, .AHEAD. ) ;
#105 =( GEOMETRIC_REPRESENTATION_CONTEXT ( 3 ) GLOBAL_UNCERTAINTY_ASSIGNED_CONTEXT ( ( #53 ) ) GLOBAL_UNIT_ASSIGNED_CONTEXT ( ( #77, #2, #37 ) ) REPRESENTATION_CONTEXT ( 'NONE', 'WORKASPACE' ) );
#106 = AXIS2_PLACEMENT_3D ( 'NONE', #71, #226, #29 ) ;
#107 = ORIENTED_EDGE ( 'NONE', *, *, #7, .T. ) ;
#108 = PRODUCT_DEFINITION ( 'NEZNÁMÝ', '', #66, #229 ) ;
#109 = VERTEX_POINT ( 'NONE', #48 ) ;
#110 = AXIS2_PLACEMENT_3D ( 'NONE', #186, #207, #223 ) ;
#111 = AXIS2_PLACEMENT_3D ( 'NONE', #255, #156, #82 ) ;
#112 = EDGE_CURVE ( 'NONE', #31, #185, #122, .T. ) ;
#113 = ORIENTED_EDGE ( 'NONE', *, *, #125, .T. ) ;
#114 = VERTEX_POINT ( 'NONE', #239 ) ;
#115 = ORIENTED_EDGE ( 'NONE', *, *, #227, .T. ) ;
#116 = DIRECTION ( 'NONE',  ( 0.000000000000000000, 0.000000000000000000, 1.000000000000000000 ) ) ;
#117 = APPLICATION_CONTEXT ( 'configuration controlled 3d designs of mechanical parts and assemblies' ) ;
#118 = FACE_OUTER_BOUND ( 'NONE', #27, .T. ) ;
#119 = CARTESIAN_POINT ( 'NONE',  ( 0.000000000000000000, 0.000000000000000000, 3.000000000000000000 ) ) ;
#120 = PERSON_AND_ORGANIZATION_ROLE ( 'creator' ) ;
#121 = SHAPE_DEFINITION_REPRESENTATION ( #228, #221 ) ;
#122 = CIRCLE ( 'NONE', #8, 2.250000000000000000 ) ;
#123 = DIRECTION ( 'NONE',  ( 1.000000000000000000, 0.000000000000000000, -0.000000000000000000 ) ) ;
#124 = DIRECTION ( 'NONE',  ( 1.000000000000000000, 0.000000000000000000, 0.000000000000000000 ) ) ;
#125 = EDGE_CURVE ( 'NONE', #217, #166, #19, .T. ) ;
#126 = COORDINATED_UNIVERSAL_TIME_OFFSET ( 1, 0, .AHEAD. ) ;
#127 = SECURITY_CLASSIFICATION ( '', '', #231 ) ;
#128 = EDGE_CURVE ( 'NONE', #246, #217, #15, .T. ) ;
#129 = FACE_OUTER_BOUND ( 'NONE', #159, .T. ) ;
#130 = CARTESIAN_POINT ( 'NONE',  ( 0.000000000000000000, 0.000000000000000000, 3.000000000000000000 ) ) ;
#131 = ORGANIZATION ( 'NEURÈENÝ', 'NEURÈENÝ', '' ) ;
#132 = CARTESIAN_POINT ( 'NONE',  ( 0.000000000000000000, 0.000000000000000000, 3.000000000000000000 ) ) ;
#133 = APPROVAL ( #97, 'NEURÈENÝ' ) ;
#134 = DIRECTION ( 'NONE',  ( -0.000000000000000000, -0.000000000000000000, -1.000000000000000000 ) ) ;
#135 = CC_DESIGN_DATE_AND_TIME_ASSIGNMENT ( #138, #137, ( #127 ) ) ;
#136 = DIRECTION ( 'NONE',  ( -0.000000000000000000, -0.000000000000000000, -1.000000000000000000 ) ) ;
#137 = DATE_TIME_ROLE ( 'classification_date' ) ;
#138 = DATE_AND_TIME ( #155, #76 ) ;
#139 = DIRECTION ( 'NONE',  ( -0.000000000000000000, -0.000000000000000000, -1.000000000000000000 ) ) ;
#140 = COORDINATED_UNIVERSAL_TIME_OFFSET ( 1, 0, .AHEAD. ) ;
#141 = DATE_AND_TIME ( #169, #26 ) ;
#142 = LOCAL_TIME ( 19, 48, 2.000000000000000000, #140 ) ;
#143 = AXIS2_PLACEMENT_3D ( 'NONE', #119, #152, #39 ) ;
#144 = DIRECTION ( 'NONE',  ( 0.000000000000000000, 0.000000000000000000, 1.000000000000000000 ) ) ;
#145 = DIRECTION ( 'NONE',  ( 1.000000000000000000, 0.000000000000000000, 0.000000000000000000 ) ) ;
#146 = ADVANCED_FACE ( 'NONE', ( #84, #96 ), #35, .T. ) ;
#147 = ORIENTED_EDGE ( 'NONE', *, *, #17, .T. ) ;
#148 = ORIENTED_EDGE ( 'NONE', *, *, #17, .F. ) ;
#149 = DIRECTION ( 'NONE',  ( 0.000000000000000000, 0.000000000000000000, 1.000000000000000000 ) ) ;
#150 = CARTESIAN_POINT ( 'NONE',  ( -4.000000000000000000, 0.000000000000000000, 0.000000000000000000 ) ) ;
#151 = PERSON_AND_ORGANIZATION ( #102, #131 ) ;
#152 = DIRECTION ( 'NONE',  ( -0.000000000000000000, -0.000000000000000000, -1.000000000000000000 ) ) ;
#153 = PERSON_AND_ORGANIZATION ( #102, #131 ) ;
#154 = FACE_OUTER_BOUND ( 'NONE', #86, .T. ) ;
#155 = CALENDAR_DATE ( 2022, 7, 7 ) ;
#156 = DIRECTION ( 'NONE',  ( 0.000000000000000000, 0.000000000000000000, 1.000000000000000000 ) ) ;
#157 = DIRECTION ( 'NONE',  ( 0.000000000000000000, 0.000000000000000000, 1.000000000000000000 ) ) ;
#158 = APPLICATION_CONTEXT ( 'configuration controlled 3d designs of mechanical parts and assemblies' ) ;
#159 = EDGE_LOOP ( 'NONE', ( #180, #45 ) ) ;
#160 = AXIS2_PLACEMENT_3D ( 'NONE', #181, #161, #224 ) ;
#161 = DIRECTION ( 'NONE',  ( -0.000000000000000000, -0.000000000000000000, -1.000000000000000000 ) ) ;
#162 = EDGE_LOOP ( 'NONE', ( #147, #93 ) ) ;
#163 = ADVANCED_FACE ( 'NONE', ( #154 ), #197, .T. ) ;
#164 = ORIENTED_EDGE ( 'NONE', *, *, #227, .F. ) ;
#165 = EDGE_LOOP ( 'NONE', ( #85, #115, #87, #95 ) ) ;
#166 = VERTEX_POINT ( 'NONE', #150 ) ;
#167 = DIRECTION ( 'NONE',  ( -0.000000000000000000, -0.000000000000000000, -1.000000000000000000 ) ) ;
#168 = APPROVAL_PERSON_ORGANIZATION ( #153, #218, #196 ) ;
#169 = CALENDAR_DATE ( 2022, 7, 7 ) ;
#170 = DIRECTION ( 'NONE',  ( 0.000000000000000000, 0.000000000000000000, 1.000000000000000000 ) ) ;
#171 = APPROVAL ( #79, 'NEURÈENÝ' ) ;
#172 = DIRECTION ( 'NONE',  ( 0.000000000000000000, 0.000000000000000000, 1.000000000000000000 ) ) ;
#173 = CARTESIAN_POINT ( 'NONE',  ( 4.000000000000000000, 4.898587196589412829E-16, 3.000000000000000000 ) ) ;
#174 = APPROVAL_DATE_TIME ( #235, #218 ) ;
#175 = CARTESIAN_POINT ( 'NONE',  ( 0.000000000000000000, 0.000000000000000000, 403.0000000000000000 ) ) ;
#176 = PERSON_AND_ORGANIZATION ( #102, #131 ) ;
#177 = CC_DESIGN_PERSON_AND_ORGANIZATION_ASSIGNMENT ( #99, #252, ( #66 ) ) ;
#178 = CLOSED_SHELL ( 'NONE', ( #9, #210, #28, #146, #73, #163, #182 ) ) ;
#179 = AXIS2_PLACEMENT_3D ( 'NONE', #253, #41, #103 ) ;
#180 = ORIENTED_EDGE ( 'NONE', *, *, #78, .F. ) ;
#181 = CARTESIAN_POINT ( 'NONE',  ( 0.000000000000000000, 0.000000000000000000, 403.0000000000000000 ) ) ;
#182 = ADVANCED_FACE ( 'NONE', ( #58 ), #230, .T. ) ;
#183 = ORIENTED_EDGE ( 'NONE', *, *, #112, .T. ) ;
#184 = CC_DESIGN_APPROVAL ( #133, ( #108 ) ) ;
#185 = VERTEX_POINT ( 'NONE', #80 ) ;
#186 = CARTESIAN_POINT ( 'NONE',  ( 0.000000000000000000, 0.000000000000000000, 0.000000000000000000 ) ) ;
#187 = ORIENTED_EDGE ( 'NONE', *, *, #202, .T. ) ;
#188 = APPROVAL_PERSON_ORGANIZATION ( #176, #133, #254 ) ;
#189 = CC_DESIGN_PERSON_AND_ORGANIZATION_ASSIGNMENT ( #151, #120, ( #66 ) ) ;
#190 = ORIENTED_EDGE ( 'NONE', *, *, #32, .F. ) ;
#191 = CARTESIAN_POINT ( 'NONE',  ( -4.000000000000000000, 0.000000000000000000, 3.000000000000000000 ) ) ;
#192 = CARTESIAN_POINT ( 'NONE',  ( 0.000000000000000000, 0.000000000000000000, 3.000000000000000000 ) ) ;
#193 = CIRCLE ( 'NONE', #199, 4.000000000000000000 ) ;
#194 = APPLICATION_PROTOCOL_DEFINITION ( 'international standard', 'config_control_design', 1994, #158 ) ;
#195 = CARTESIAN_POINT ( 'NONE',  ( 0.000000000000000000, 0.000000000000000000, 403.0000000000000000 ) ) ;
#196 = APPROVAL_ROLE ( '' ) ;
#197 = CYLINDRICAL_SURFACE ( 'NONE', #251, 2.250000000000000000 ) ;
#198 = MECHANICAL_CONTEXT ( 'NONE', #117, 'mechanical' ) ;
#199 = AXIS2_PLACEMENT_3D ( 'NONE', #206, #116, #222 ) ;
#200 = AXIS2_PLACEMENT_3D ( 'NONE', #175, #170, #123 ) ;
#201 = VECTOR ( 'NONE', #62, 1000.000000000000000 ) ;
#202 = EDGE_CURVE ( 'NONE', #109, #31, #54, .T. ) ;
#203 = PLANE ( 'NONE',  #106 ) ;
#204 = EDGE_LOOP ( 'NONE', ( #5, #11 ) ) ;
#205 = CC_DESIGN_APPROVAL ( #218, ( #66 ) ) ;
#206 = CARTESIAN_POINT ( 'NONE',  ( 0.000000000000000000, 0.000000000000000000, 0.000000000000000000 ) ) ;
#207 = DIRECTION ( 'NONE',  ( 0.000000000000000000, 0.000000000000000000, 1.000000000000000000 ) ) ;
#208 = CC_DESIGN_PERSON_AND_ORGANIZATION_ASSIGNMENT ( #23, #55, ( #127 ) ) ;
#209 = CYLINDRICAL_SURFACE ( 'NONE', #143, 4.000000000000000000 ) ;
#210 = ADVANCED_FACE ( 'NONE', ( #232 ), #209, .T. ) ;
#211 = PERSON_AND_ORGANIZATION ( #102, #131 ) ;
#212 = DATE_AND_TIME ( #233, #20 ) ;
#213 = CARTESIAN_POINT ( 'NONE',  ( 4.000000000000000000, 4.898587196589412829E-16, 3.000000000000000000 ) ) ;
#214 = CALENDAR_DATE ( 2022, 7, 7 ) ;
#215 = CARTESIAN_POINT ( 'NONE',  ( 2.250000000000000000, 2.755455298081544285E-16, 403.0000000000000000 ) ) ;
#216 = CALENDAR_DATE ( 2022, 7, 7 ) ;
#217 = VERTEX_POINT ( 'NONE', #191 ) ;
#218 = APPROVAL ( #3, 'NEURÈENÝ' ) ;
#219 = LOCAL_TIME ( 19, 48, 2.000000000000000000, #21 ) ;
#220 = EDGE_CURVE ( 'NONE', #185, #31, #50, .T. ) ;
#221 = ADVANCED_BREP_SHAPE_REPRESENTATION ( '3d92', ( #65, #249 ), #105 ) ;
#222 = DIRECTION ( 'NONE',  ( 1.000000000000000000, 0.000000000000000000, 0.000000000000000000 ) ) ;
#223 = DIRECTION ( 'NONE',  ( 1.000000000000000000, 0.000000000000000000, 0.000000000000000000 ) ) ;
#224 = DIRECTION ( 'NONE',  ( -1.000000000000000000, 0.000000000000000000, 0.000000000000000000 ) ) ;
#225 = AXIS2_PLACEMENT_3D ( 'NONE', #72, #149, #13 ) ;
#226 = DIRECTION ( 'NONE',  ( 0.000000000000000000, 0.000000000000000000, 1.000000000000000000 ) ) ;
#227 = EDGE_CURVE ( 'NONE', #246, #114, #100, .T. ) ;
#228 = PRODUCT_DEFINITION_SHAPE ( 'NONE', 'NONE',  #108 ) ;
#229 = DESIGN_CONTEXT ( 'detailed design', #158, 'design' ) ;
#230 = PLANE ( 'NONE',  #200 ) ;
#231 = SECURITY_CLASSIFICATION_LEVEL ( 'unclassified' ) ;
#232 = FACE_OUTER_BOUND ( 'NONE', #165, .T. ) ;
#233 = CALENDAR_DATE ( 2022, 7, 7 ) ;
#234 = DIRECTION ( 'NONE',  ( -1.000000000000000000, 0.000000000000000000, 0.000000000000000000 ) ) ;
#235 = DATE_AND_TIME ( #216, #219 ) ;
#236 = CARTESIAN_POINT ( 'NONE',  ( -2.250000000000000000, 0.000000000000000000, 403.0000000000000000 ) ) ;
#237 = CIRCLE ( 'NONE', #68, 4.000000000000000000 ) ;
#238 = PERSON_AND_ORGANIZATION ( #102, #131 ) ;
#239 = CARTESIAN_POINT ( 'NONE',  ( 4.000000000000000000, 4.898587196589412829E-16, 0.000000000000000000 ) ) ;
#240 = APPLICATION_PROTOCOL_DEFINITION ( 'international standard', 'config_control_design', 1994, #117 ) ;
#241 = VECTOR ( 'NONE', #136, 1000.000000000000000 ) ;
#242 = EDGE_CURVE ( 'NONE', #14, #185, #22, .T. ) ;
#243 = CC_DESIGN_APPROVAL ( #171, ( #127 ) ) ;
#244 = DIRECTION ( 'NONE',  ( 1.000000000000000000, 0.000000000000000000, 0.000000000000000000 ) ) ;
#245 = ORIENTED_EDGE ( 'NONE', *, *, #202, .F. ) ;
#246 = VERTEX_POINT ( 'NONE', #173 ) ;
#247 = EDGE_LOOP ( 'NONE', ( #164, #148, #113, #92 ) ) ;
#248 = CARTESIAN_POINT ( 'NONE',  ( 0.000000000000000000, 0.000000000000000000, 3.000000000000000000 ) ) ;
#249 = AXIS2_PLACEMENT_3D ( 'NONE', #61, #172, #38 ) ;
#250 = ORIENTED_EDGE ( 'NONE', *, *, #242, .F. ) ;
#251 = AXIS2_PLACEMENT_3D ( 'NONE', #195, #74, #234 ) ;
#252 = PERSON_AND_ORGANIZATION_ROLE ( 'design_supplier' ) ;
#253 = CARTESIAN_POINT ( 'NONE',  ( 0.000000000000000000, 0.000000000000000000, 3.000000000000000000 ) ) ;
#254 = APPROVAL_ROLE ( '' ) ;
#255 = CARTESIAN_POINT ( 'NONE',  ( 0.000000000000000000, 0.000000000000000000, 3.000000000000000000 ) ) ;
ENDSEC;
END-ISO-10303-21;
