ISO-10303-21;
HEADER;
FILE_DESCRIPTION (( 'STEP AP203' ),
    '1' );
FILE_NAME ('ddee.STEP',
    '2023-02-13T12:24:37',
    ( '' ),
    ( '' ),
    'SwSTEP 2.0',
    'SolidWorks 2019',
    '' );
FILE_SCHEMA (( 'CONFIG_CONTROL_DESIGN' ));
ENDSEC;

DATA;
#1 = CARTESIAN_POINT ( 'NONE',  ( -6.000000000000000888, 0.000000000000000000, 400.0000000000000000 ) ) ;
#2 = PLANE ( 'NONE',  #58 ) ;
#3 = EDGE_CURVE ( 'NONE', #231, #242, #47, .T. ) ;
#4 = PRODUCT_DEFINITION_SHAPE ( 'NONE', 'NONE',  #94 ) ;
#5 = ORIENTED_EDGE ( 'NONE', *, *, #3, .T. ) ;
#6 = DIRECTION ( 'NONE',  ( 1.000000000000000000, 0.000000000000000000, -0.000000000000000000 ) ) ;
#7 = EDGE_CURVE ( 'NONE', #159, #203, #178, .T. ) ;
#8 = DIRECTION ( 'NONE',  ( 0.000000000000000000, 0.000000000000000000, 1.000000000000000000 ) ) ;
#9 = CC_DESIGN_APPROVAL ( #199, ( #35 ) ) ;
#10 = COORDINATED_UNIVERSAL_TIME_OFFSET ( 1, 0, .AHEAD. ) ;
#11 = CARTESIAN_POINT ( 'NONE',  ( -9.000000000000000000, 0.000000000000000000, 0.000000000000000000 ) ) ;
#12 = SHAPE_DEFINITION_REPRESENTATION ( #4, #114 ) ;
#13 = AXIS2_PLACEMENT_3D ( 'NONE', #188, #229, #79 ) ;
#14 = DIRECTION ( 'NONE',  ( -0.000000000000000000, -0.000000000000000000, -1.000000000000000000 ) ) ;
#15 = ORIENTED_EDGE ( 'NONE', *, *, #234, .T. ) ;
#16 = DATE_AND_TIME ( #222, #105 ) ;
#17 = PERSON_AND_ORGANIZATION ( #80, #44 ) ;
#18 = CALENDAR_DATE ( 2023, 13, 2 ) ;
#19 = PRODUCT ( 'ddee', 'ddee', '', ( #255 ) ) ;
#20 = APPLICATION_PROTOCOL_DEFINITION ( 'international standard', 'config_control_design', 1994, #89 ) ;
#21 = AXIS2_PLACEMENT_3D ( 'NONE', #156, #82, #235 ) ;
#22 = ORIENTED_EDGE ( 'NONE', *, *, #254, .F. ) ;
#23 = DIRECTION ( 'NONE',  ( 1.000000000000000000, 0.000000000000000000, 0.000000000000000000 ) ) ;
#24 = DIRECTION ( 'NONE',  ( -0.000000000000000000, -0.000000000000000000, -1.000000000000000000 ) ) ;
#25 = LOCAL_TIME ( 13, 24, 37.00000000000000000, #250 ) ;
#26 = ORIENTED_EDGE ( 'NONE', *, *, #218, .F. ) ;
#27 = DIRECTION ( 'NONE',  ( 1.000000000000000000, 0.000000000000000000, 0.000000000000000000 ) ) ;
#28 = APPROVAL_ROLE ( '' ) ;
#29 = CARTESIAN_POINT ( 'NONE',  ( 0.000000000000000000, 0.000000000000000000, 7.000000000000000000 ) ) ;
#30 = CALENDAR_DATE ( 2023, 13, 2 ) ;
#31 = EDGE_CURVE ( 'NONE', #170, #77, #209, .T. ) ;
#32 = CALENDAR_DATE ( 2023, 13, 2 ) ;
#33 = ORIENTED_EDGE ( 'NONE', *, *, #254, .T. ) ;
#34 = PERSON_AND_ORGANIZATION_ROLE ( 'classification_officer' ) ;
#35 = SECURITY_CLASSIFICATION ( '', '', #237 ) ;
#36 = ORIENTED_EDGE ( 'NONE', *, *, #40, .T. ) ;
#37 = CC_DESIGN_PERSON_AND_ORGANIZATION_ASSIGNMENT ( #163, #34, ( #35 ) ) ;
#38 = ORIENTED_EDGE ( 'NONE', *, *, #40, .F. ) ;
#39 = COORDINATED_UNIVERSAL_TIME_OFFSET ( 1, 0, .AHEAD. ) ;
#40 = EDGE_CURVE ( 'NONE', #232, #71, #98, .T. ) ;
#41 = FACE_OUTER_BOUND ( 'NONE', #139, .T. ) ;
#42 = PLANE ( 'NONE',  #90 ) ;
#43 = CARTESIAN_POINT ( 'NONE',  ( 0.000000000000000000, 0.000000000000000000, 7.000000000000000000 ) ) ;
#44 = ORGANIZATION ( 'NEURÈENÝ', 'NEURÈENÝ', '' ) ;
#45 = DIRECTION ( 'NONE',  ( 0.000000000000000000, 0.000000000000000000, 1.000000000000000000 ) ) ;
#46 = FACE_OUTER_BOUND ( 'NONE', #164, .T. ) ;
#47 = CIRCLE ( 'NONE', #111, 9.000000000000000000 ) ;
#48 = APPROVAL_ROLE ( '' ) ;
#49 = PERSON_AND_ORGANIZATION_ROLE ( 'creator' ) ;
#50 = FACE_OUTER_BOUND ( 'NONE', #132, .T. ) ;
#51 = ADVANCED_FACE ( 'NONE', ( #95 ), #217, .F. ) ;
#52 = CIRCLE ( 'NONE', #190, 6.000000000000000888 ) ;
#53 = APPROVAL_PERSON_ORGANIZATION ( #197, #210, #28 ) ;
#54 = ORIENTED_EDGE ( 'NONE', *, *, #152, .T. ) ;
#55 = PERSON_AND_ORGANIZATION ( #80, #44 ) ;
#56 = ORIENTED_EDGE ( 'NONE', *, *, #78, .T. ) ;
#57 = APPROVAL_STATUS ( 'not_yet_approved' ) ;
#58 = AXIS2_PLACEMENT_3D ( 'NONE', #157, #64, #6 ) ;
#59 = CC_DESIGN_PERSON_AND_ORGANIZATION_ASSIGNMENT ( #106, #145, ( #129 ) ) ;
#60 = APPROVAL_PERSON_ORGANIZATION ( #125, #199, #48 ) ;
#61 = APPROVAL_DATE_TIME ( #227, #110 ) ;
#62 = FACE_OUTER_BOUND ( 'NONE', #206, .T. ) ;
#63 = FACE_OUTER_BOUND ( 'NONE', #85, .T. ) ;
#64 = DIRECTION ( 'NONE',  ( 0.000000000000000000, 0.000000000000000000, 1.000000000000000000 ) ) ;
#65 = ADVANCED_FACE ( 'NONE', ( #119, #62 ), #2, .T. ) ;
#66 = ORIENTED_EDGE ( 'NONE', *, *, #3, .F. ) ;
#67 = VECTOR ( 'NONE', #196, 1000.000000000000000 ) ;
#68 = DIRECTION ( 'NONE',  ( -0.000000000000000000, -0.000000000000000000, -1.000000000000000000 ) ) ;
#69 = DIRECTION ( 'NONE',  ( 1.000000000000000000, 0.000000000000000000, -0.000000000000000000 ) ) ;
#70 = CC_DESIGN_PERSON_AND_ORGANIZATION_ASSIGNMENT ( #55, #131, ( #94 ) ) ;
#71 = VERTEX_POINT ( 'NONE', #211 ) ;
#72 = DATE_TIME_ROLE ( 'classification_date' ) ;
#73 = AXIS2_PLACEMENT_3D ( 'NONE', #74, #198, #221 ) ;
#74 = CARTESIAN_POINT ( 'NONE',  ( 0.000000000000000000, 0.000000000000000000, 0.000000000000000000 ) ) ;
#75 = DIRECTION ( 'NONE',  ( -0.000000000000000000, -0.000000000000000000, -1.000000000000000000 ) ) ;
#76 = CALENDAR_DATE ( 2023, 13, 2 ) ;
#77 = VERTEX_POINT ( 'NONE', #102 ) ;
#78 = EDGE_CURVE ( 'NONE', #71, #242, #214, .T. ) ;
#79 = DIRECTION ( 'NONE',  ( 1.000000000000000000, 0.000000000000000000, 0.000000000000000000 ) ) ;
#80 = PERSON ( 'NEURÈENÝ', 'NEURÈENÝ', 'NEURÈENÝ', ('NEURÈENÝ'), ('NEURÈENÝ'), ('NEURÈENÝ') ) ;
#81 = LINE ( 'NONE', #179, #67 ) ;
#82 = DIRECTION ( 'NONE',  ( 0.000000000000000000, 0.000000000000000000, 1.000000000000000000 ) ) ;
#83 = DIRECTION ( 'NONE',  ( 1.000000000000000000, 0.000000000000000000, 0.000000000000000000 ) ) ;
#84 = CYLINDRICAL_SURFACE ( 'NONE', #252, 6.000000000000000888 ) ;
#85 = EDGE_LOOP ( 'NONE', ( #207, #228, #162, #223 ) ) ;
#86 = DATE_AND_TIME ( #32, #166 ) ;
#87 = CC_DESIGN_DATE_AND_TIME_ASSIGNMENT ( #121, #248, ( #94 ) ) ;
#88 =( LENGTH_UNIT ( ) NAMED_UNIT ( * ) SI_UNIT ( .MILLI., .METRE. ) );
#89 = APPLICATION_CONTEXT ( 'configuration controlled 3d designs of mechanical parts and assemblies' ) ;
#90 = AXIS2_PLACEMENT_3D ( 'NONE', #202, #148, #69 ) ;
#91 = CARTESIAN_POINT ( 'NONE',  ( 0.000000000000000000, 0.000000000000000000, 7.000000000000000000 ) ) ;
#92 = ORIENTED_EDGE ( 'NONE', *, *, #218, .T. ) ;
#93 = CYLINDRICAL_SURFACE ( 'NONE', #245, 6.000000000000000888 ) ;
#94 = PRODUCT_DEFINITION ( 'NEZNÁMÝ', '', #129, #172 ) ;
#95 = FACE_OUTER_BOUND ( 'NONE', #244, .T. ) ;
#96 = APPLICATION_CONTEXT ( 'configuration controlled 3d designs of mechanical parts and assemblies' ) ;
#97 = DIRECTION ( 'NONE',  ( -1.000000000000000000, 0.000000000000000000, 0.000000000000000000 ) ) ;
#98 = CIRCLE ( 'NONE', #134, 9.000000000000000000 ) ;
#99 = EDGE_LOOP ( 'NONE', ( #151, #109, #54, #108 ) ) ;
#100 = AXIS2_PLACEMENT_3D ( 'NONE', #29, #205, #241 ) ;
#101 = CARTESIAN_POINT ( 'NONE',  ( 0.000000000000000000, 0.000000000000000000, 0.000000000000000000 ) ) ;
#102 = CARTESIAN_POINT ( 'NONE',  ( 6.000000000000000888, 7.347880794884120722E-16, 400.0000000000000000 ) ) ;
#103 = DATE_AND_TIME ( #30, #147 ) ;
#104 = ADVANCED_FACE ( 'NONE', ( #63 ), #84, .T. ) ;
#105 = LOCAL_TIME ( 13, 24, 37.00000000000000000, #149 ) ;
#106 = PERSON_AND_ORGANIZATION ( #80, #44 ) ;
#107 = LINE ( 'NONE', #224, #113 ) ;
#108 = ORIENTED_EDGE ( 'NONE', *, *, #7, .T. ) ;
#109 = ORIENTED_EDGE ( 'NONE', *, *, #31, .F. ) ;
#110 = APPROVAL ( #57, 'NEURÈENÝ' ) ;
#111 = AXIS2_PLACEMENT_3D ( 'NONE', #101, #195, #154 ) ;
#112 = APPLICATION_PROTOCOL_DEFINITION ( 'international standard', 'config_control_design', 1994, #96 ) ;
#113 = VECTOR ( 'NONE', #75, 1000.000000000000000 ) ;
#114 = ADVANCED_BREP_SHAPE_REPRESENTATION ( 'ddee', ( #226, #13 ), #247 ) ;
#115 = DIRECTION ( 'NONE',  ( 0.000000000000000000, 0.000000000000000000, 1.000000000000000000 ) ) ;
#116 = EDGE_LOOP ( 'NONE', ( #155, #236 ) ) ;
#117 = DIRECTION ( 'NONE',  ( -0.000000000000000000, -0.000000000000000000, -1.000000000000000000 ) ) ;
#118 = AXIS2_PLACEMENT_3D ( 'NONE', #219, #123, #126 ) ;
#119 = FACE_BOUND ( 'NONE', #116, .T. ) ;
#120 = CC_DESIGN_PERSON_AND_ORGANIZATION_ASSIGNMENT ( #183, #49, ( #129 ) ) ;
#121 = DATE_AND_TIME ( #18, #215 ) ;
#122 = ORIENTED_EDGE ( 'NONE', *, *, #238, .T. ) ;
#123 = DIRECTION ( 'NONE',  ( 0.000000000000000000, 0.000000000000000000, 1.000000000000000000 ) ) ;
#124 = CLOSED_SHELL ( 'NONE', ( #104, #208, #136, #65, #51, #189, #175 ) ) ;
#125 = PERSON_AND_ORGANIZATION ( #80, #44 ) ;
#126 = DIRECTION ( 'NONE',  ( 1.000000000000000000, 0.000000000000000000, 0.000000000000000000 ) ) ;
#127 = ORIENTED_EDGE ( 'NONE', *, *, #78, .F. ) ;
#128 = CARTESIAN_POINT ( 'NONE',  ( -9.000000000000000000, 0.000000000000000000, 7.000000000000000000 ) ) ;
#129 = PRODUCT_DEFINITION_FORMATION_WITH_SPECIFIED_SOURCE ( 'LIBOVOLNÝ', '', #19, .NOT_KNOWN. ) ;
#130 = EDGE_CURVE ( 'NONE', #77, #203, #138, .T. ) ;
#131 = PERSON_AND_ORGANIZATION_ROLE ( 'creator' ) ;
#132 = EDGE_LOOP ( 'NONE', ( #146, #56, #33, #26 ) ) ;
#133 = APPROVAL_ROLE ( '' ) ;
#134 = AXIS2_PLACEMENT_3D ( 'NONE', #181, #8, #23 ) ;
#135 = CIRCLE ( 'NONE', #73, 9.000000000000000000 ) ;
#136 = ADVANCED_FACE ( 'NONE', ( #46 ), #193, .T. ) ;
#137 = AXIS2_PLACEMENT_3D ( 'NONE', #143, #115, #180 ) ;
#138 = LINE ( 'NONE', #140, #158 ) ;
#139 = EDGE_LOOP ( 'NONE', ( #225, #122 ) ) ;
#140 = CARTESIAN_POINT ( 'NONE',  ( 6.000000000000000888, 7.347880794884120722E-16, 400.0000000000000000 ) ) ;
#141 = CIRCLE ( 'NONE', #118, 6.000000000000000888 ) ;
#142 = CARTESIAN_POINT ( 'NONE',  ( 9.000000000000000000, 1.102182119232617714E-15, 7.000000000000000000 ) ) ;
#143 = CARTESIAN_POINT ( 'NONE',  ( 0.000000000000000000, 0.000000000000000000, 400.0000000000000000 ) ) ;
#144 = DIRECTION ( 'NONE',  ( -1.000000000000000000, 0.000000000000000000, 0.000000000000000000 ) ) ;
#145 = PERSON_AND_ORGANIZATION_ROLE ( 'design_supplier' ) ;
#146 = ORIENTED_EDGE ( 'NONE', *, *, #234, .F. ) ;
#147 = LOCAL_TIME ( 13, 24, 37.00000000000000000, #200 ) ;
#148 = DIRECTION ( 'NONE',  ( 0.000000000000000000, 0.000000000000000000, 1.000000000000000000 ) ) ;
#149 = COORDINATED_UNIVERSAL_TIME_OFFSET ( 1, 0, .AHEAD. ) ;
#150 = FACE_OUTER_BOUND ( 'NONE', #99, .T. ) ;
#151 = ORIENTED_EDGE ( 'NONE', *, *, #130, .F. ) ;
#152 = EDGE_CURVE ( 'NONE', #170, #159, #81, .T. ) ;
#153 = CC_DESIGN_SECURITY_CLASSIFICATION ( #35, ( #129 ) ) ;
#154 = DIRECTION ( 'NONE',  ( 1.000000000000000000, 0.000000000000000000, 0.000000000000000000 ) ) ;
#155 = ORIENTED_EDGE ( 'NONE', *, *, #7, .F. ) ;
#156 = CARTESIAN_POINT ( 'NONE',  ( 0.000000000000000000, 0.000000000000000000, 0.000000000000000000 ) ) ;
#157 = CARTESIAN_POINT ( 'NONE',  ( 0.000000000000000000, 0.000000000000000000, 7.000000000000000000 ) ) ;
#158 = VECTOR ( 'NONE', #212, 1000.000000000000000 ) ;
#159 = VERTEX_POINT ( 'NONE', #177 ) ;
#160 = APPROVAL_STATUS ( 'not_yet_approved' ) ;
#161 =( NAMED_UNIT ( * ) PLANE_ANGLE_UNIT ( ) SI_UNIT ( $, .RADIAN. ) );
#162 = ORIENTED_EDGE ( 'NONE', *, *, #169, .T. ) ;
#163 = PERSON_AND_ORGANIZATION ( #80, #44 ) ;
#164 = EDGE_LOOP ( 'NONE', ( #127, #38, #92, #5 ) ) ;
#165 = CC_DESIGN_DATE_AND_TIME_ASSIGNMENT ( #86, #72, ( #35 ) ) ;
#166 = LOCAL_TIME ( 13, 24, 37.00000000000000000, #10 ) ;
#167 = CARTESIAN_POINT ( 'NONE',  ( 0.000000000000000000, 0.000000000000000000, 400.0000000000000000 ) ) ;
#168 = APPROVAL_PERSON_ORGANIZATION ( #171, #110, #133 ) ;
#169 = EDGE_CURVE ( 'NONE', #203, #159, #52, .T. ) ;
#170 = VERTEX_POINT ( 'NONE', #1 ) ;
#171 = PERSON_AND_ORGANIZATION ( #80, #44 ) ;
#172 = DESIGN_CONTEXT ( 'detailed design', #96, 'design' ) ;
#173 = AXIS2_PLACEMENT_3D ( 'NONE', #216, #24, #176 ) ;
#174 = CC_DESIGN_APPROVAL ( #110, ( #94 ) ) ;
#175 = ADVANCED_FACE ( 'NONE', ( #41 ), #42, .T. ) ;
#176 = DIRECTION ( 'NONE',  ( -1.000000000000000000, 0.000000000000000000, 0.000000000000000000 ) ) ;
#177 = CARTESIAN_POINT ( 'NONE',  ( -6.000000000000000888, 0.000000000000000000, 7.000000000000000000 ) ) ;
#178 = CIRCLE ( 'NONE', #182, 6.000000000000000888 ) ;
#179 = CARTESIAN_POINT ( 'NONE',  ( -6.000000000000000888, 0.000000000000000000, 400.0000000000000000 ) ) ;
#180 = DIRECTION ( 'NONE',  ( 1.000000000000000000, 0.000000000000000000, 0.000000000000000000 ) ) ;
#181 = CARTESIAN_POINT ( 'NONE',  ( 0.000000000000000000, 0.000000000000000000, 7.000000000000000000 ) ) ;
#182 = AXIS2_PLACEMENT_3D ( 'NONE', #43, #239, #83 ) ;
#183 = PERSON_AND_ORGANIZATION ( #80, #44 ) ;
#184 = CYLINDRICAL_SURFACE ( 'NONE', #187, 9.000000000000000000 ) ;
#185 = APPROVAL_DATE_TIME ( #103, #199 ) ;
#186 = CC_DESIGN_APPROVAL ( #210, ( #129 ) ) ;
#187 = AXIS2_PLACEMENT_3D ( 'NONE', #91, #246, #249 ) ;
#188 = CARTESIAN_POINT ( 'NONE',  ( 0.000000000000000000, 0.000000000000000000, 0.000000000000000000 ) ) ;
#189 = ADVANCED_FACE ( 'NONE', ( #150 ), #93, .T. ) ;
#190 = AXIS2_PLACEMENT_3D ( 'NONE', #233, #45, #27 ) ;
#191 = UNCERTAINTY_MEASURE_WITH_UNIT (LENGTH_MEASURE( 1.000000000000000082E-05 ), #88, 'distance_accuracy_value', 'NONE');
#192 = CARTESIAN_POINT ( 'NONE',  ( 0.000000000000000000, 0.000000000000000000, 400.0000000000000000 ) ) ;
#193 = CYLINDRICAL_SURFACE ( 'NONE', #173, 9.000000000000000000 ) ;
#194 = VECTOR ( 'NONE', #68, 1000.000000000000000 ) ;
#195 = DIRECTION ( 'NONE',  ( 0.000000000000000000, 0.000000000000000000, 1.000000000000000000 ) ) ;
#196 = DIRECTION ( 'NONE',  ( -0.000000000000000000, -0.000000000000000000, -1.000000000000000000 ) ) ;
#197 = PERSON_AND_ORGANIZATION ( #80, #44 ) ;
#198 = DIRECTION ( 'NONE',  ( 0.000000000000000000, 0.000000000000000000, 1.000000000000000000 ) ) ;
#199 = APPROVAL ( #160, 'NEURÈENÝ' ) ;
#200 = COORDINATED_UNIVERSAL_TIME_OFFSET ( 1, 0, .AHEAD. ) ;
#201 = CARTESIAN_POINT ( 'NONE',  ( 9.000000000000000000, 1.102182119232617714E-15, 0.000000000000000000 ) ) ;
#202 = CARTESIAN_POINT ( 'NONE',  ( 0.000000000000000000, 0.000000000000000000, 400.0000000000000000 ) ) ;
#203 = VERTEX_POINT ( 'NONE', #220 ) ;
#204 = APPROVAL_STATUS ( 'not_yet_approved' ) ;
#205 = DIRECTION ( 'NONE',  ( 0.000000000000000000, 0.000000000000000000, 1.000000000000000000 ) ) ;
#206 = EDGE_LOOP ( 'NONE', ( #36, #15 ) ) ;
#207 = ORIENTED_EDGE ( 'NONE', *, *, #238, .F. ) ;
#208 = ADVANCED_FACE ( 'NONE', ( #50 ), #184, .T. ) ;
#209 = CIRCLE ( 'NONE', #137, 6.000000000000000888 ) ;
#210 = APPROVAL ( #204, 'NEURÈENÝ' ) ;
#211 = CARTESIAN_POINT ( 'NONE',  ( 9.000000000000000000, 1.102182119232617714E-15, 7.000000000000000000 ) ) ;
#212 = DIRECTION ( 'NONE',  ( -0.000000000000000000, -0.000000000000000000, -1.000000000000000000 ) ) ;
#213 = PRODUCT_RELATED_PRODUCT_CATEGORY ( 'detail', '', ( #19 ) ) ;
#214 = LINE ( 'NONE', #142, #194 ) ;
#215 = LOCAL_TIME ( 13, 24, 37.00000000000000000, #39 ) ;
#216 = CARTESIAN_POINT ( 'NONE',  ( 0.000000000000000000, 0.000000000000000000, 7.000000000000000000 ) ) ;
#217 = PLANE ( 'NONE',  #21 ) ;
#218 = EDGE_CURVE ( 'NONE', #232, #231, #107, .T. ) ;
#219 = CARTESIAN_POINT ( 'NONE',  ( 0.000000000000000000, 0.000000000000000000, 400.0000000000000000 ) ) ;
#220 = CARTESIAN_POINT ( 'NONE',  ( 6.000000000000000888, 7.347880794884120722E-16, 7.000000000000000000 ) ) ;
#221 = DIRECTION ( 'NONE',  ( 1.000000000000000000, 0.000000000000000000, 0.000000000000000000 ) ) ;
#222 = CALENDAR_DATE ( 2023, 13, 2 ) ;
#223 = ORIENTED_EDGE ( 'NONE', *, *, #152, .F. ) ;
#224 = CARTESIAN_POINT ( 'NONE',  ( -9.000000000000000000, 0.000000000000000000, 7.000000000000000000 ) ) ;
#225 = ORIENTED_EDGE ( 'NONE', *, *, #31, .T. ) ;
#226 = MANIFOLD_SOLID_BREP ( 'Pøidat vysunutím3', #124 ) ;
#227 = DATE_AND_TIME ( #76, #25 ) ;
#228 = ORIENTED_EDGE ( 'NONE', *, *, #130, .T. ) ;
#229 = DIRECTION ( 'NONE',  ( 0.000000000000000000, 0.000000000000000000, 1.000000000000000000 ) ) ;
#230 = PERSON_AND_ORGANIZATION_ROLE ( 'design_owner' ) ;
#231 = VERTEX_POINT ( 'NONE', #11 ) ;
#232 = VERTEX_POINT ( 'NONE', #128 ) ;
#233 = CARTESIAN_POINT ( 'NONE',  ( 0.000000000000000000, 0.000000000000000000, 7.000000000000000000 ) ) ;
#234 = EDGE_CURVE ( 'NONE', #71, #232, #253, .T. ) ;
#235 = DIRECTION ( 'NONE',  ( 1.000000000000000000, 0.000000000000000000, -0.000000000000000000 ) ) ;
#236 = ORIENTED_EDGE ( 'NONE', *, *, #169, .F. ) ;
#237 = SECURITY_CLASSIFICATION_LEVEL ( 'unclassified' ) ;
#238 = EDGE_CURVE ( 'NONE', #77, #170, #141, .T. ) ;
#239 = DIRECTION ( 'NONE',  ( 0.000000000000000000, 0.000000000000000000, 1.000000000000000000 ) ) ;
#240 = APPROVAL_DATE_TIME ( #16, #210 ) ;
#241 = DIRECTION ( 'NONE',  ( 1.000000000000000000, 0.000000000000000000, 0.000000000000000000 ) ) ;
#242 = VERTEX_POINT ( 'NONE', #201 ) ;
#243 =( NAMED_UNIT ( * ) SI_UNIT ( $, .STERADIAN. ) SOLID_ANGLE_UNIT ( ) );
#244 = EDGE_LOOP ( 'NONE', ( #66, #22 ) ) ;
#245 = AXIS2_PLACEMENT_3D ( 'NONE', #167, #14, #144 ) ;
#246 = DIRECTION ( 'NONE',  ( -0.000000000000000000, -0.000000000000000000, -1.000000000000000000 ) ) ;
#247 =( GEOMETRIC_REPRESENTATION_CONTEXT ( 3 ) GLOBAL_UNCERTAINTY_ASSIGNED_CONTEXT ( ( #191 ) ) GLOBAL_UNIT_ASSIGNED_CONTEXT ( ( #88, #161, #243 ) ) REPRESENTATION_CONTEXT ( 'NONE', 'WORKASPACE' ) );
#248 = DATE_TIME_ROLE ( 'creation_date' ) ;
#249 = DIRECTION ( 'NONE',  ( -1.000000000000000000, 0.000000000000000000, 0.000000000000000000 ) ) ;
#250 = COORDINATED_UNIVERSAL_TIME_OFFSET ( 1, 0, .AHEAD. ) ;
#251 = CC_DESIGN_PERSON_AND_ORGANIZATION_ASSIGNMENT ( #17, #230, ( #19 ) ) ;
#252 = AXIS2_PLACEMENT_3D ( 'NONE', #192, #117, #97 ) ;
#253 = CIRCLE ( 'NONE', #100, 9.000000000000000000 ) ;
#254 = EDGE_CURVE ( 'NONE', #242, #231, #135, .T. ) ;
#255 = MECHANICAL_CONTEXT ( 'NONE', #89, 'mechanical' ) ;
ENDSEC;
END-ISO-10303-21;
