ISO-10303-21;
HEADER;
FILE_DESCRIPTION (( 'STEP AP203' ),
    '1' );
FILE_NAME ('2fa7.STEP',
    '2022-07-07T17:30:16',
    ( '' ),
    ( '' ),
    'SwSTEP 2.0',
    'SolidWorks 2019',
    '' );
FILE_SCHEMA (( 'CONFIG_CONTROL_DESIGN' ));
ENDSEC;

DATA;
#1 = ORIENTED_EDGE ( 'NONE', *, *, #250, .F. ) ;
#2 = AXIS2_PLACEMENT_3D ( 'NONE', #148, #49, #226 ) ;
#3 = CC_DESIGN_PERSON_AND_ORGANIZATION_ASSIGNMENT ( #126, #135, ( #52 ) ) ;
#4 = CARTESIAN_POINT ( 'NONE',  ( 0.000000000000000000, 0.000000000000000000, 205.0000000000000284 ) ) ;
#5 = AXIS2_PLACEMENT_3D ( 'NONE', #204, #185, #91 ) ;
#6 = DIRECTION ( 'NONE',  ( 1.000000000000000000, 0.000000000000000000, 0.000000000000000000 ) ) ;
#7 = AXIS2_PLACEMENT_3D ( 'NONE', #247, #147, #227 ) ;
#8 = CARTESIAN_POINT ( 'NONE',  ( 0.000000000000000000, 0.000000000000000000, 0.000000000000000000 ) ) ;
#9 = DATE_AND_TIME ( #211, #55 ) ;
#10 = CARTESIAN_POINT ( 'NONE',  ( 0.000000000000000000, 0.000000000000000000, 205.0000000000000284 ) ) ;
#11 =( GEOMETRIC_REPRESENTATION_CONTEXT ( 3 ) GLOBAL_UNCERTAINTY_ASSIGNED_CONTEXT ( ( #38 ) ) GLOBAL_UNIT_ASSIGNED_CONTEXT ( ( #207, #189, #12 ) ) REPRESENTATION_CONTEXT ( 'NONE', 'WORKASPACE' ) );
#12 =( NAMED_UNIT ( * ) SI_UNIT ( $, .STERADIAN. ) SOLID_ANGLE_UNIT ( ) );
#13 = CALENDAR_DATE ( 2022, 7, 7 ) ;
#14 = CARTESIAN_POINT ( 'NONE',  ( 0.000000000000000000, 0.000000000000000000, 0.000000000000000000 ) ) ;
#15 = ORIENTED_EDGE ( 'NONE', *, *, #82, .F. ) ;
#16 = EDGE_CURVE ( 'NONE', #37, #218, #197, .T. ) ;
#17 = CLOSED_SHELL ( 'NONE', ( #194, #40, #175, #125, #26, #177, #149 ) ) ;
#18 = ORIENTED_EDGE ( 'NONE', *, *, #239, .T. ) ;
#19 = ORIENTED_EDGE ( 'NONE', *, *, #167, .F. ) ;
#20 = LOCAL_TIME ( 19, 30, 16.00000000000000000, #215 ) ;
#21 = PLANE ( 'NONE',  #5 ) ;
#22 = SECURITY_CLASSIFICATION_LEVEL ( 'unclassified' ) ;
#23 = DIRECTION ( 'NONE',  ( 0.000000000000000000, 0.000000000000000000, 1.000000000000000000 ) ) ;
#24 = AXIS2_PLACEMENT_3D ( 'NONE', #10, #223, #127 ) ;
#25 = CARTESIAN_POINT ( 'NONE',  ( 0.000000000000000000, 0.000000000000000000, 205.0000000000000284 ) ) ;
#26 = ADVANCED_FACE ( 'NONE', ( #73 ), #32, .F. ) ;
#27 = APPROVAL_ROLE ( '' ) ;
#28 = DIRECTION ( 'NONE',  ( 1.000000000000000000, 0.000000000000000000, 0.000000000000000000 ) ) ;
#29 = CARTESIAN_POINT ( 'NONE',  ( 4.250000000000000000, 5.204748896376250699E-16, 205.0000000000000284 ) ) ;
#30 = PERSON_AND_ORGANIZATION ( #33, #120 ) ;
#31 = LINE ( 'NONE', #94, #161 ) ;
#32 = PLANE ( 'NONE',  #198 ) ;
#33 = PERSON ( 'NEURÈENÝ', 'NEURÈENÝ', 'NEURÈENÝ', ('NEURÈENÝ'), ('NEURÈENÝ'), ('NEURÈENÝ') ) ;
#34 = DIRECTION ( 'NONE',  ( -1.000000000000000000, 0.000000000000000000, 0.000000000000000000 ) ) ;
#35 = CC_DESIGN_PERSON_AND_ORGANIZATION_ASSIGNMENT ( #121, #229, ( #88 ) ) ;
#36 = ORIENTED_EDGE ( 'NONE', *, *, #254, .F. ) ;
#37 = VERTEX_POINT ( 'NONE', #75 ) ;
#38 = UNCERTAINTY_MEASURE_WITH_UNIT (LENGTH_MEASURE( 1.000000000000000082E-05 ), #207, 'distance_accuracy_value', 'NONE');
#39 = APPROVAL_PERSON_ORGANIZATION ( #56, #163, #27 ) ;
#40 = ADVANCED_FACE ( 'NONE', ( #155 ), #101, .T. ) ;
#41 = AXIS2_PLACEMENT_3D ( 'NONE', #136, #214, #34 ) ;
#42 = AXIS2_PLACEMENT_3D ( 'NONE', #242, #143, #178 ) ;
#43 = CARTESIAN_POINT ( 'NONE',  ( 0.000000000000000000, 0.000000000000000000, 0.000000000000000000 ) ) ;
#44 = CARTESIAN_POINT ( 'NONE',  ( 0.000000000000000000, 0.000000000000000000, 205.0000000000000284 ) ) ;
#45 = APPROVAL ( #72, 'NEURÈENÝ' ) ;
#46 = PERSON_AND_ORGANIZATION ( #33, #120 ) ;
#47 = DIRECTION ( 'NONE',  ( -1.000000000000000000, 0.000000000000000000, 0.000000000000000000 ) ) ;
#48 = EDGE_CURVE ( 'NONE', #169, #218, #241, .T. ) ;
#49 = DIRECTION ( 'NONE',  ( 0.000000000000000000, 0.000000000000000000, 1.000000000000000000 ) ) ;
#50 = CARTESIAN_POINT ( 'NONE',  ( -7.000000000000000000, 0.000000000000000000, 5.000000000000000000 ) ) ;
#51 = MECHANICAL_CONTEXT ( 'NONE', #76, 'mechanical' ) ;
#52 = PRODUCT ( '2fa7', '2fa7', '', ( #51 ) ) ;
#53 = PERSON_AND_ORGANIZATION_ROLE ( 'creator' ) ;
#54 = EDGE_LOOP ( 'NONE', ( #1, #84, #18, #137 ) ) ;
#55 = LOCAL_TIME ( 19, 30, 16.00000000000000000, #112 ) ;
#56 = PERSON_AND_ORGANIZATION ( #33, #120 ) ;
#57 = ORIENTED_EDGE ( 'NONE', *, *, #239, .F. ) ;
#58 = CC_DESIGN_PERSON_AND_ORGANIZATION_ASSIGNMENT ( #114, #130, ( #88 ) ) ;
#59 = ORIENTED_EDGE ( 'NONE', *, *, #184, .T. ) ;
#60 = ADVANCED_BREP_SHAPE_REPRESENTATION ( '2fa7', ( #220, #180 ), #11 ) ;
#61 = ORIENTED_EDGE ( 'NONE', *, *, #250, .T. ) ;
#62 = AXIS2_PLACEMENT_3D ( 'NONE', #44, #122, #6 ) ;
#63 = DIRECTION ( 'NONE',  ( -0.000000000000000000, -0.000000000000000000, -1.000000000000000000 ) ) ;
#64 = PRODUCT_RELATED_PRODUCT_CATEGORY ( 'detail', '', ( #52 ) ) ;
#65 = CIRCLE ( 'NONE', #87, 7.000000000000000000 ) ;
#66 = CIRCLE ( 'NONE', #2, 4.250000000000000000 ) ;
#67 = FACE_OUTER_BOUND ( 'NONE', #54, .T. ) ;
#68 = CARTESIAN_POINT ( 'NONE',  ( -7.000000000000000000, 0.000000000000000000, 0.000000000000000000 ) ) ;
#69 = DIRECTION ( 'NONE',  ( 1.000000000000000000, 0.000000000000000000, 0.000000000000000000 ) ) ;
#70 = APPROVAL_DATE_TIME ( #246, #163 ) ;
#71 = LINE ( 'NONE', #162, #186 ) ;
#72 = APPROVAL_STATUS ( 'not_yet_approved' ) ;
#73 = FACE_OUTER_BOUND ( 'NONE', #102, .T. ) ;
#74 = PERSON_AND_ORGANIZATION ( #33, #120 ) ;
#75 = CARTESIAN_POINT ( 'NONE',  ( -4.250000000000000000, 0.000000000000000000, 205.0000000000000284 ) ) ;
#76 = APPLICATION_CONTEXT ( 'configuration controlled 3d designs of mechanical parts and assemblies' ) ;
#77 = AXIS2_PLACEMENT_3D ( 'NONE', #109, #160, #69 ) ;
#78 = APPROVAL_PERSON_ORGANIZATION ( #251, #97, #152 ) ;
#79 = APPROVAL_STATUS ( 'not_yet_approved' ) ;
#80 = EDGE_CURVE ( 'NONE', #234, #169, #71, .T. ) ;
#81 = ORIENTED_EDGE ( 'NONE', *, *, #193, .F. ) ;
#82 = EDGE_CURVE ( 'NONE', #172, #171, #65, .T. ) ;
#83 = ORIENTED_EDGE ( 'NONE', *, *, #80, .F. ) ;
#84 = ORIENTED_EDGE ( 'NONE', *, *, #184, .F. ) ;
#85 = VECTOR ( 'NONE', #63, 1000.000000000000000 ) ;
#86 = DIRECTION ( 'NONE',  ( -0.000000000000000000, -0.000000000000000000, -1.000000000000000000 ) ) ;
#87 = AXIS2_PLACEMENT_3D ( 'NONE', #8, #23, #206 ) ;
#88 = PRODUCT_DEFINITION_FORMATION_WITH_SPECIFIED_SOURCE ( 'LIBOVOLNÝ', '', #52, .NOT_KNOWN. ) ;
#89 = CARTESIAN_POINT ( 'NONE',  ( 7.000000000000000000, 8.572527594031473190E-16, 0.000000000000000000 ) ) ;
#90 = APPLICATION_CONTEXT ( 'configuration controlled 3d designs of mechanical parts and assemblies' ) ;
#91 = DIRECTION ( 'NONE',  ( 1.000000000000000000, 0.000000000000000000, -0.000000000000000000 ) ) ;
#92 = APPROVAL_DATE_TIME ( #9, #45 ) ;
#93 = CARTESIAN_POINT ( 'NONE',  ( 0.000000000000000000, 0.000000000000000000, 5.000000000000000000 ) ) ;
#94 = CARTESIAN_POINT ( 'NONE',  ( -7.000000000000000000, 0.000000000000000000, 5.000000000000000000 ) ) ;
#95 = APPROVAL_PERSON_ORGANIZATION ( #74, #45, #146 ) ;
#96 = DIRECTION ( 'NONE',  ( -0.000000000000000000, -0.000000000000000000, -1.000000000000000000 ) ) ;
#97 = APPROVAL ( #79, 'NEURÈENÝ' ) ;
#98 = CALENDAR_DATE ( 2022, 7, 7 ) ;
#99 = DIRECTION ( 'NONE',  ( 1.000000000000000000, 0.000000000000000000, -0.000000000000000000 ) ) ;
#100 = PRODUCT_DEFINITION ( 'NEZNÁMÝ', '', #88, #240 ) ;
#101 = CYLINDRICAL_SURFACE ( 'NONE', #41, 7.000000000000000000 ) ;
#102 = EDGE_LOOP ( 'NONE', ( #217, #15 ) ) ;
#103 = CARTESIAN_POINT ( 'NONE',  ( -4.250000000000000000, 0.000000000000000000, 205.0000000000000284 ) ) ;
#104 = DIRECTION ( 'NONE',  ( -0.000000000000000000, -0.000000000000000000, -1.000000000000000000 ) ) ;
#105 = SHAPE_DEFINITION_REPRESENTATION ( #110, #60 ) ;
#106 = FACE_OUTER_BOUND ( 'NONE', #255, .T. ) ;
#107 = CIRCLE ( 'NONE', #24, 4.250000000000000000 ) ;
#108 = CARTESIAN_POINT ( 'NONE',  ( 4.250000000000000000, 5.204748896376250699E-16, 5.000000000000000000 ) ) ;
#109 = CARTESIAN_POINT ( 'NONE',  ( 0.000000000000000000, 0.000000000000000000, 5.000000000000000000 ) ) ;
#110 = PRODUCT_DEFINITION_SHAPE ( 'NONE', 'NONE',  #100 ) ;
#111 = FACE_OUTER_BOUND ( 'NONE', #132, .T. ) ;
#112 = COORDINATED_UNIVERSAL_TIME_OFFSET ( 1, 0, .AHEAD. ) ;
#113 = LOCAL_TIME ( 19, 30, 16.00000000000000000, #142 ) ;
#114 = PERSON_AND_ORGANIZATION ( #33, #120 ) ;
#115 = DIRECTION ( 'NONE',  ( 0.000000000000000000, 0.000000000000000000, 1.000000000000000000 ) ) ;
#116 = PERSON_AND_ORGANIZATION_ROLE ( 'classification_officer' ) ;
#117 = CARTESIAN_POINT ( 'NONE',  ( 0.000000000000000000, 0.000000000000000000, 5.000000000000000000 ) ) ;
#118 = ORIENTED_EDGE ( 'NONE', *, *, #167, .T. ) ;
#119 = EDGE_CURVE ( 'NONE', #171, #172, #238, .T. ) ;
#120 = ORGANIZATION ( 'NEURÈENÝ', 'NEURÈENÝ', '' ) ;
#121 = PERSON_AND_ORGANIZATION ( #33, #120 ) ;
#122 = DIRECTION ( 'NONE',  ( 0.000000000000000000, 0.000000000000000000, 1.000000000000000000 ) ) ;
#123 = DIRECTION ( 'NONE',  ( 1.000000000000000000, 0.000000000000000000, 0.000000000000000000 ) ) ;
#124 = AXIS2_PLACEMENT_3D ( 'NONE', #93, #224, #208 ) ;
#125 = ADVANCED_FACE ( 'NONE', ( #244, #111 ), #21, .T. ) ;
#126 = PERSON_AND_ORGANIZATION ( #33, #120 ) ;
#127 = DIRECTION ( 'NONE',  ( 1.000000000000000000, 0.000000000000000000, 0.000000000000000000 ) ) ;
#128 = CARTESIAN_POINT ( 'NONE',  ( -4.250000000000000000, 0.000000000000000000, 5.000000000000000000 ) ) ;
#129 = APPLICATION_PROTOCOL_DEFINITION ( 'international standard', 'config_control_design', 1994, #90 ) ;
#130 = PERSON_AND_ORGANIZATION_ROLE ( 'design_supplier' ) ;
#131 = CARTESIAN_POINT ( 'NONE',  ( 7.000000000000000000, 8.572527594031473190E-16, 5.000000000000000000 ) ) ;
#132 = EDGE_LOOP ( 'NONE', ( #59, #157 ) ) ;
#133 = SECURITY_CLASSIFICATION ( '', '', #22 ) ;
#134 = CALENDAR_DATE ( 2022, 7, 7 ) ;
#135 = PERSON_AND_ORGANIZATION_ROLE ( 'design_owner' ) ;
#136 = CARTESIAN_POINT ( 'NONE',  ( 0.000000000000000000, 0.000000000000000000, 5.000000000000000000 ) ) ;
#137 = ORIENTED_EDGE ( 'NONE', *, *, #119, .T. ) ;
#138 = ORIENTED_EDGE ( 'NONE', *, *, #16, .F. ) ;
#139 = CC_DESIGN_PERSON_AND_ORGANIZATION_ASSIGNMENT ( #46, #53, ( #100 ) ) ;
#140 = EDGE_CURVE ( 'NONE', #192, #196, #153, .T. ) ;
#141 = CC_DESIGN_SECURITY_CLASSIFICATION ( #133, ( #88 ) ) ;
#142 = COORDINATED_UNIVERSAL_TIME_OFFSET ( 1, 0, .AHEAD. ) ;
#143 = DIRECTION ( 'NONE',  ( 0.000000000000000000, 0.000000000000000000, 1.000000000000000000 ) ) ;
#144 = CYLINDRICAL_SURFACE ( 'NONE', #195, 4.250000000000000000 ) ;
#145 = CARTESIAN_POINT ( 'NONE',  ( 7.000000000000000000, 8.572527594031473190E-16, 5.000000000000000000 ) ) ;
#146 = APPROVAL_ROLE ( '' ) ;
#147 = DIRECTION ( 'NONE',  ( -0.000000000000000000, -0.000000000000000000, -1.000000000000000000 ) ) ;
#148 = CARTESIAN_POINT ( 'NONE',  ( 0.000000000000000000, 0.000000000000000000, 5.000000000000000000 ) ) ;
#149 = ADVANCED_FACE ( 'NONE', ( #203 ), #176, .T. ) ;
#150 = DIRECTION ( 'NONE',  ( 0.000000000000000000, 0.000000000000000000, 1.000000000000000000 ) ) ;
#151 = ORIENTED_EDGE ( 'NONE', *, *, #82, .T. ) ;
#152 = APPROVAL_ROLE ( '' ) ;
#153 = CIRCLE ( 'NONE', #77, 7.000000000000000000 ) ;
#154 = CARTESIAN_POINT ( 'NONE',  ( 0.000000000000000000, 0.000000000000000000, 0.000000000000000000 ) ) ;
#155 = FACE_OUTER_BOUND ( 'NONE', #252, .T. ) ;
#156 = ORIENTED_EDGE ( 'NONE', *, *, #48, .F. ) ;
#157 = ORIENTED_EDGE ( 'NONE', *, *, #140, .T. ) ;
#158 = EDGE_LOOP ( 'NONE', ( #36, #156 ) ) ;
#159 = CIRCLE ( 'NONE', #42, 7.000000000000000000 ) ;
#160 = DIRECTION ( 'NONE',  ( 0.000000000000000000, 0.000000000000000000, 1.000000000000000000 ) ) ;
#161 = VECTOR ( 'NONE', #209, 1000.000000000000000 ) ;
#162 = CARTESIAN_POINT ( 'NONE',  ( 4.250000000000000000, 5.204748896376250699E-16, 205.0000000000000284 ) ) ;
#163 = APPROVAL ( #213, 'NEURÈENÝ' ) ;
#164 = CYLINDRICAL_SURFACE ( 'NONE', #124, 7.000000000000000000 ) ;
#165 = CALENDAR_DATE ( 2022, 7, 7 ) ;
#166 = CYLINDRICAL_SURFACE ( 'NONE', #7, 4.250000000000000000 ) ;
#167 = EDGE_CURVE ( 'NONE', #37, #234, #107, .T. ) ;
#168 = DATE_AND_TIME ( #98, #199 ) ;
#169 = VERTEX_POINT ( 'NONE', #108 ) ;
#170 = DATE_AND_TIME ( #13, #113 ) ;
#171 = VERTEX_POINT ( 'NONE', #68 ) ;
#172 = VERTEX_POINT ( 'NONE', #89 ) ;
#173 = ORIENTED_EDGE ( 'NONE', *, *, #254, .T. ) ;
#174 = CC_DESIGN_APPROVAL ( #97, ( #133 ) ) ;
#175 = ADVANCED_FACE ( 'NONE', ( #67 ), #164, .T. ) ;
#176 = PLANE ( 'NONE',  #219 ) ;
#177 = ADVANCED_FACE ( 'NONE', ( #106 ), #144, .T. ) ;
#178 = DIRECTION ( 'NONE',  ( 1.000000000000000000, 0.000000000000000000, 0.000000000000000000 ) ) ;
#179 = AXIS2_PLACEMENT_3D ( 'NONE', #117, #181, #123 ) ;
#180 = AXIS2_PLACEMENT_3D ( 'NONE', #154, #150, #249 ) ;
#181 = DIRECTION ( 'NONE',  ( 0.000000000000000000, 0.000000000000000000, 1.000000000000000000 ) ) ;
#182 = COORDINATED_UNIVERSAL_TIME_OFFSET ( 1, 0, .AHEAD. ) ;
#183 = DIRECTION ( 'NONE',  ( 0.000000000000000000, 0.000000000000000000, 1.000000000000000000 ) ) ;
#184 = EDGE_CURVE ( 'NONE', #196, #192, #159, .T. ) ;
#185 = DIRECTION ( 'NONE',  ( 0.000000000000000000, 0.000000000000000000, 1.000000000000000000 ) ) ;
#186 = VECTOR ( 'NONE', #104, 1000.000000000000000 ) ;
#187 = CC_DESIGN_APPROVAL ( #163, ( #88 ) ) ;
#188 = DATE_TIME_ROLE ( 'classification_date' ) ;
#189 =( NAMED_UNIT ( * ) PLANE_ANGLE_UNIT ( ) SI_UNIT ( $, .RADIAN. ) );
#190 = EDGE_LOOP ( 'NONE', ( #81, #253, #212, #138 ) ) ;
#191 = CC_DESIGN_PERSON_AND_ORGANIZATION_ASSIGNMENT ( #30, #116, ( #133 ) ) ;
#192 = VERTEX_POINT ( 'NONE', #145 ) ;
#193 = EDGE_CURVE ( 'NONE', #234, #37, #248, .T. ) ;
#194 = ADVANCED_FACE ( 'NONE', ( #225 ), #166, .T. ) ;
#195 = AXIS2_PLACEMENT_3D ( 'NONE', #4, #86, #47 ) ;
#196 = VERTEX_POINT ( 'NONE', #50 ) ;
#197 = LINE ( 'NONE', #103, #85 ) ;
#198 = AXIS2_PLACEMENT_3D ( 'NONE', #14, #115, #99 ) ;
#199 = LOCAL_TIME ( 19, 30, 16.00000000000000000, #205 ) ;
#200 = VECTOR ( 'NONE', #96, 1000.000000000000000 ) ;
#201 = CC_DESIGN_DATE_AND_TIME_ASSIGNMENT ( #210, #188, ( #133 ) ) ;
#202 = DIRECTION ( 'NONE',  ( 0.000000000000000000, 0.000000000000000000, 1.000000000000000000 ) ) ;
#203 = FACE_OUTER_BOUND ( 'NONE', #235, .T. ) ;
#204 = CARTESIAN_POINT ( 'NONE',  ( 0.000000000000000000, 0.000000000000000000, 5.000000000000000000 ) ) ;
#205 = COORDINATED_UNIVERSAL_TIME_OFFSET ( 1, 0, .AHEAD. ) ;
#206 = DIRECTION ( 'NONE',  ( 1.000000000000000000, 0.000000000000000000, 0.000000000000000000 ) ) ;
#207 =( LENGTH_UNIT ( ) NAMED_UNIT ( * ) SI_UNIT ( .MILLI., .METRE. ) );
#208 = DIRECTION ( 'NONE',  ( -1.000000000000000000, 0.000000000000000000, 0.000000000000000000 ) ) ;
#209 = DIRECTION ( 'NONE',  ( -0.000000000000000000, -0.000000000000000000, -1.000000000000000000 ) ) ;
#210 = DATE_AND_TIME ( #134, #20 ) ;
#211 = CALENDAR_DATE ( 2022, 7, 7 ) ;
#212 = ORIENTED_EDGE ( 'NONE', *, *, #48, .T. ) ;
#213 = APPROVAL_STATUS ( 'not_yet_approved' ) ;
#214 = DIRECTION ( 'NONE',  ( -0.000000000000000000, -0.000000000000000000, -1.000000000000000000 ) ) ;
#215 = COORDINATED_UNIVERSAL_TIME_OFFSET ( 1, 0, .AHEAD. ) ;
#216 = CC_DESIGN_DATE_AND_TIME_ASSIGNMENT ( #168, #233, ( #100 ) ) ;
#217 = ORIENTED_EDGE ( 'NONE', *, *, #119, .F. ) ;
#218 = VERTEX_POINT ( 'NONE', #128 ) ;
#219 = AXIS2_PLACEMENT_3D ( 'NONE', #25, #202, #245 ) ;
#220 = MANIFOLD_SOLID_BREP ( 'Pøidat vysunutím3', #17 ) ;
#221 = LOCAL_TIME ( 19, 30, 16.00000000000000000, #182 ) ;
#222 = APPROVAL_DATE_TIME ( #170, #97 ) ;
#223 = DIRECTION ( 'NONE',  ( 0.000000000000000000, 0.000000000000000000, 1.000000000000000000 ) ) ;
#224 = DIRECTION ( 'NONE',  ( -0.000000000000000000, -0.000000000000000000, -1.000000000000000000 ) ) ;
#225 = FACE_OUTER_BOUND ( 'NONE', #190, .T. ) ;
#226 = DIRECTION ( 'NONE',  ( 1.000000000000000000, 0.000000000000000000, 0.000000000000000000 ) ) ;
#227 = DIRECTION ( 'NONE',  ( -1.000000000000000000, 0.000000000000000000, 0.000000000000000000 ) ) ;
#228 = APPLICATION_PROTOCOL_DEFINITION ( 'international standard', 'config_control_design', 1994, #76 ) ;
#229 = PERSON_AND_ORGANIZATION_ROLE ( 'creator' ) ;
#230 = LINE ( 'NONE', #131, #200 ) ;
#231 = ORIENTED_EDGE ( 'NONE', *, *, #16, .T. ) ;
#232 = AXIS2_PLACEMENT_3D ( 'NONE', #43, #183, #28 ) ;
#233 = DATE_TIME_ROLE ( 'creation_date' ) ;
#234 = VERTEX_POINT ( 'NONE', #29 ) ;
#235 = EDGE_LOOP ( 'NONE', ( #118, #236 ) ) ;
#236 = ORIENTED_EDGE ( 'NONE', *, *, #193, .T. ) ;
#237 = ORIENTED_EDGE ( 'NONE', *, *, #140, .F. ) ;
#238 = CIRCLE ( 'NONE', #232, 7.000000000000000000 ) ;
#239 = EDGE_CURVE ( 'NONE', #196, #171, #31, .T. ) ;
#240 = DESIGN_CONTEXT ( 'detailed design', #90, 'design' ) ;
#241 = CIRCLE ( 'NONE', #179, 4.250000000000000000 ) ;
#242 = CARTESIAN_POINT ( 'NONE',  ( 0.000000000000000000, 0.000000000000000000, 5.000000000000000000 ) ) ;
#243 = CC_DESIGN_APPROVAL ( #45, ( #100 ) ) ;
#244 = FACE_BOUND ( 'NONE', #158, .T. ) ;
#245 = DIRECTION ( 'NONE',  ( 1.000000000000000000, 0.000000000000000000, -0.000000000000000000 ) ) ;
#246 = DATE_AND_TIME ( #165, #221 ) ;
#247 = CARTESIAN_POINT ( 'NONE',  ( 0.000000000000000000, 0.000000000000000000, 205.0000000000000284 ) ) ;
#248 = CIRCLE ( 'NONE', #62, 4.250000000000000000 ) ;
#249 = DIRECTION ( 'NONE',  ( 1.000000000000000000, 0.000000000000000000, 0.000000000000000000 ) ) ;
#250 = EDGE_CURVE ( 'NONE', #192, #172, #230, .T. ) ;
#251 = PERSON_AND_ORGANIZATION ( #33, #120 ) ;
#252 = EDGE_LOOP ( 'NONE', ( #237, #61, #151, #57 ) ) ;
#253 = ORIENTED_EDGE ( 'NONE', *, *, #80, .T. ) ;
#254 = EDGE_CURVE ( 'NONE', #218, #169, #66, .T. ) ;
#255 = EDGE_LOOP ( 'NONE', ( #83, #19, #231, #173 ) ) ;
ENDSEC;
END-ISO-10303-21;
