ISO-10303-21;
HEADER;
FILE_DESCRIPTION (( 'STEP AP203' ),
    '1' );
FILE_NAME ('1d3c.STEP',
    '2023-02-13T11:34:40',
    ( '' ),
    ( '' ),
    'SwSTEP 2.0',
    'SolidWorks 2019',
    '' );
FILE_SCHEMA (( 'CONFIG_CONTROL_DESIGN' ));
ENDSEC;

DATA;
#1 = CARTESIAN_POINT ( 'NONE',  ( -11.00000000000000000, 0.000000000000000000, 0.000000000000000000 ) ) ;
#2 = CALENDAR_DATE ( 2023, 13, 2 ) ;
#3 =( GEOMETRIC_REPRESENTATION_CONTEXT ( 3 ) GLOBAL_UNCERTAINTY_ASSIGNED_CONTEXT ( ( #65 ) ) GLOBAL_UNIT_ASSIGNED_CONTEXT ( ( #143, #210, #247 ) ) REPRESENTATION_CONTEXT ( 'NONE', 'WORKASPACE' ) );
#4 = CC_DESIGN_DATE_AND_TIME_ASSIGNMENT ( #39, #163, ( #118 ) ) ;
#5 = ORIENTED_EDGE ( 'NONE', *, *, #25, .T. ) ;
#6 = EDGE_LOOP ( 'NONE', ( #7, #202 ) ) ;
#7 = ORIENTED_EDGE ( 'NONE', *, *, #84, .T. ) ;
#8 = ORIENTED_EDGE ( 'NONE', *, *, #82, .T. ) ;
#9 = DIRECTION ( 'NONE',  ( -0.000000000000000000, -0.000000000000000000, -1.000000000000000000 ) ) ;
#10 = CIRCLE ( 'NONE', #35, 6.750000000000000000 ) ;
#11 = CARTESIAN_POINT ( 'NONE',  ( 0.000000000000000000, 0.000000000000000000, 7.000000000000000000 ) ) ;
#12 = PRODUCT_DEFINITION_FORMATION_WITH_SPECIFIED_SOURCE ( 'LIBOVOLNÝ', '', #67, .NOT_KNOWN. ) ;
#13 = FACE_OUTER_BOUND ( 'NONE', #184, .T. ) ;
#14 = PLANE ( 'NONE',  #53 ) ;
#15 = PERSON_AND_ORGANIZATION_ROLE ( 'design_owner' ) ;
#16 = CYLINDRICAL_SURFACE ( 'NONE', #31, 11.00000000000000000 ) ;
#17 = CALENDAR_DATE ( 2023, 13, 2 ) ;
#18 = AXIS2_PLACEMENT_3D ( 'NONE', #255, #43, #61 ) ;
#19 = COORDINATED_UNIVERSAL_TIME_OFFSET ( 1, 0, .AHEAD. ) ;
#20 = LOCAL_TIME ( 12, 34, 40.00000000000000000, #181 ) ;
#21 = PERSON_AND_ORGANIZATION ( #76, #224 ) ;
#22 = DIRECTION ( 'NONE',  ( 1.000000000000000000, 0.000000000000000000, -0.000000000000000000 ) ) ;
#23 = DATE_AND_TIME ( #144, #20 ) ;
#24 = ORIENTED_EDGE ( 'NONE', *, *, #228, .T. ) ;
#25 = EDGE_CURVE ( 'NONE', #203, #204, #27, .T. ) ;
#26 = ORIENTED_EDGE ( 'NONE', *, *, #250, .F. ) ;
#27 = LINE ( 'NONE', #186, #49 ) ;
#28 = ADVANCED_FACE ( 'NONE', ( #87 ), #110, .T. ) ;
#29 = VERTEX_POINT ( 'NONE', #168 ) ;
#30 = DIRECTION ( 'NONE',  ( 1.000000000000000000, 0.000000000000000000, 0.000000000000000000 ) ) ;
#31 = AXIS2_PLACEMENT_3D ( 'NONE', #11, #54, #229 ) ;
#32 = DATE_AND_TIME ( #230, #151 ) ;
#33 = CARTESIAN_POINT ( 'NONE',  ( 0.000000000000000000, 0.000000000000000000, 125.0000000000000000 ) ) ;
#34 = DIRECTION ( 'NONE',  ( -0.000000000000000000, -0.000000000000000000, -1.000000000000000000 ) ) ;
#35 = AXIS2_PLACEMENT_3D ( 'NONE', #114, #116, #111 ) ;
#36 = CYLINDRICAL_SURFACE ( 'NONE', #147, 6.750000000000000000 ) ;
#37 = CC_DESIGN_APPROVAL ( #145, ( #118 ) ) ;
#38 = EDGE_CURVE ( 'NONE', #203, #183, #81, .T. ) ;
#39 = DATE_AND_TIME ( #17, #182 ) ;
#40 = PLANE ( 'NONE',  #18 ) ;
#41 = DIRECTION ( 'NONE',  ( 0.000000000000000000, 0.000000000000000000, 1.000000000000000000 ) ) ;
#42 = AXIS2_PLACEMENT_3D ( 'NONE', #99, #41, #177 ) ;
#43 = DIRECTION ( 'NONE',  ( 0.000000000000000000, 0.000000000000000000, 1.000000000000000000 ) ) ;
#44 = CIRCLE ( 'NONE', #171, 11.00000000000000000 ) ;
#45 = APPLICATION_CONTEXT ( 'configuration controlled 3d designs of mechanical parts and assemblies' ) ;
#46 = EDGE_LOOP ( 'NONE', ( #86, #242, #243, #107 ) ) ;
#47 = PRODUCT_RELATED_PRODUCT_CATEGORY ( 'detail', '', ( #67 ) ) ;
#48 = VERTEX_POINT ( 'NONE', #225 ) ;
#49 = VECTOR ( 'NONE', #134, 1000.000000000000000 ) ;
#50 = AXIS2_PLACEMENT_3D ( 'NONE', #179, #77, #22 ) ;
#51 = ORIENTED_EDGE ( 'NONE', *, *, #180, .F. ) ;
#52 = EDGE_CURVE ( 'NONE', #183, #203, #135, .T. ) ;
#53 = AXIS2_PLACEMENT_3D ( 'NONE', #93, #137, #58 ) ;
#54 = DIRECTION ( 'NONE',  ( -0.000000000000000000, -0.000000000000000000, -1.000000000000000000 ) ) ;
#55 = FACE_OUTER_BOUND ( 'NONE', #166, .T. ) ;
#56 = DIRECTION ( 'NONE',  ( 1.000000000000000000, 0.000000000000000000, 0.000000000000000000 ) ) ;
#57 = CARTESIAN_POINT ( 'NONE',  ( -6.750000000000000000, 0.000000000000000000, 125.0000000000000000 ) ) ;
#58 = DIRECTION ( 'NONE',  ( 1.000000000000000000, 0.000000000000000000, -0.000000000000000000 ) ) ;
#59 = PERSON_AND_ORGANIZATION_ROLE ( 'design_supplier' ) ;
#60 = EDGE_CURVE ( 'NONE', #204, #29, #10, .T. ) ;
#61 = DIRECTION ( 'NONE',  ( 1.000000000000000000, 0.000000000000000000, -0.000000000000000000 ) ) ;
#62 = PERSON_AND_ORGANIZATION_ROLE ( 'creator' ) ;
#63 = CC_DESIGN_PERSON_AND_ORGANIZATION_ASSIGNMENT ( #176, #59, ( #12 ) ) ;
#64 = APPROVAL_ROLE ( '' ) ;
#65 = UNCERTAINTY_MEASURE_WITH_UNIT (LENGTH_MEASURE( 1.000000000000000082E-05 ), #143, 'distance_accuracy_value', 'NONE');
#66 = ORIENTED_EDGE ( 'NONE', *, *, #60, .F. ) ;
#67 = PRODUCT ( '1d3c', '1d3c', '', ( #213 ) ) ;
#68 = ORIENTED_EDGE ( 'NONE', *, *, #240, .F. ) ;
#69 = ORIENTED_EDGE ( 'NONE', *, *, #250, .T. ) ;
#70 = EDGE_LOOP ( 'NONE', ( #51, #234 ) ) ;
#71 = CARTESIAN_POINT ( 'NONE',  ( 0.000000000000000000, 0.000000000000000000, 125.0000000000000000 ) ) ;
#72 = DIRECTION ( 'NONE',  ( -1.000000000000000000, 0.000000000000000000, 0.000000000000000000 ) ) ;
#73 = DIRECTION ( 'NONE',  ( 0.000000000000000000, 0.000000000000000000, 1.000000000000000000 ) ) ;
#74 = APPROVAL_DATE_TIME ( #32, #145 ) ;
#75 = CIRCLE ( 'NONE', #42, 11.00000000000000000 ) ;
#76 = PERSON ( 'NEURÈENÝ', 'NEURÈENÝ', 'NEURÈENÝ', ('NEURÈENÝ'), ('NEURÈENÝ'), ('NEURÈENÝ') ) ;
#77 = DIRECTION ( 'NONE',  ( 0.000000000000000000, 0.000000000000000000, 1.000000000000000000 ) ) ;
#78 = CC_DESIGN_DATE_AND_TIME_ASSIGNMENT ( #101, #79, ( #201 ) ) ;
#79 = DATE_TIME_ROLE ( 'classification_date' ) ;
#80 = DIRECTION ( 'NONE',  ( 1.000000000000000000, 0.000000000000000000, 0.000000000000000000 ) ) ;
#81 = CIRCLE ( 'NONE', #89, 6.750000000000000000 ) ;
#82 = EDGE_CURVE ( 'NONE', #48, #109, #122, .T. ) ;
#83 = APPROVAL_STATUS ( 'not_yet_approved' ) ;
#84 = EDGE_CURVE ( 'NONE', #148, #48, #44, .T. ) ;
#85 = APPROVAL_ROLE ( '' ) ;
#86 = ORIENTED_EDGE ( 'NONE', *, *, #82, .F. ) ;
#87 = FACE_OUTER_BOUND ( 'NONE', #46, .T. ) ;
#88 = DIRECTION ( 'NONE',  ( -1.000000000000000000, 0.000000000000000000, 0.000000000000000000 ) ) ;
#89 = AXIS2_PLACEMENT_3D ( 'NONE', #71, #245, #152 ) ;
#90 = LOCAL_TIME ( 12, 34, 40.00000000000000000, #19 ) ;
#91 = CYLINDRICAL_SURFACE ( 'NONE', #197, 6.750000000000000000 ) ;
#92 = APPLICATION_PROTOCOL_DEFINITION ( 'international standard', 'config_control_design', 1994, #45 ) ;
#93 = CARTESIAN_POINT ( 'NONE',  ( 0.000000000000000000, 0.000000000000000000, 125.0000000000000000 ) ) ;
#94 = PERSON_AND_ORGANIZATION ( #76, #224 ) ;
#95 = CC_DESIGN_PERSON_AND_ORGANIZATION_ASSIGNMENT ( #192, #155, ( #118 ) ) ;
#96 = DIRECTION ( 'NONE',  ( 1.000000000000000000, 0.000000000000000000, 0.000000000000000000 ) ) ;
#97 = ADVANCED_FACE ( 'NONE', ( #13 ), #36, .T. ) ;
#98 = MANIFOLD_SOLID_BREP ( 'Pøidat vysunutím3', #237 ) ;
#99 = CARTESIAN_POINT ( 'NONE',  ( 0.000000000000000000, 0.000000000000000000, 0.000000000000000000 ) ) ;
#100 = CC_DESIGN_PERSON_AND_ORGANIZATION_ASSIGNMENT ( #94, #15, ( #67 ) ) ;
#101 = DATE_AND_TIME ( #165, #90 ) ;
#102 = PLANE ( 'NONE',  #50 ) ;
#103 = APPROVAL_PERSON_ORGANIZATION ( #173, #145, #115 ) ;
#104 = EDGE_LOOP ( 'NONE', ( #68, #8, #24, #167 ) ) ;
#105 = ORIENTED_EDGE ( 'NONE', *, *, #52, .T. ) ;
#106 = ADVANCED_FACE ( 'NONE', ( #170 ), #16, .T. ) ;
#107 = ORIENTED_EDGE ( 'NONE', *, *, #180, .T. ) ;
#108 = VECTOR ( 'NONE', #199, 1000.000000000000000 ) ;
#109 = VERTEX_POINT ( 'NONE', #153 ) ;
#110 = CYLINDRICAL_SURFACE ( 'NONE', #231, 11.00000000000000000 ) ;
#111 = DIRECTION ( 'NONE',  ( 1.000000000000000000, 0.000000000000000000, 0.000000000000000000 ) ) ;
#112 = CC_DESIGN_PERSON_AND_ORGANIZATION_ASSIGNMENT ( #217, #198, ( #201 ) ) ;
#113 = COORDINATED_UNIVERSAL_TIME_OFFSET ( 1, 0, .AHEAD. ) ;
#114 = CARTESIAN_POINT ( 'NONE',  ( 0.000000000000000000, 0.000000000000000000, 7.000000000000000000 ) ) ;
#115 = APPROVAL_ROLE ( '' ) ;
#116 = DIRECTION ( 'NONE',  ( 0.000000000000000000, 0.000000000000000000, 1.000000000000000000 ) ) ;
#117 = PRODUCT_DEFINITION_SHAPE ( 'NONE', 'NONE',  #118 ) ;
#118 = PRODUCT_DEFINITION ( 'NEZNÁMÝ', '', #12, #206 ) ;
#119 = AXIS2_PLACEMENT_3D ( 'NONE', #33, #207, #30 ) ;
#120 = DIRECTION ( 'NONE',  ( 1.000000000000000000, 0.000000000000000000, 0.000000000000000000 ) ) ;
#121 = CIRCLE ( 'NONE', #185, 6.750000000000000000 ) ;
#122 = LINE ( 'NONE', #248, #156 ) ;
#123 = ADVANCED_FACE ( 'NONE', ( #55 ), #91, .T. ) ;
#124 = CARTESIAN_POINT ( 'NONE',  ( 6.750000000000000000, 8.266365894244634333E-16, 7.000000000000000000 ) ) ;
#125 = DATE_AND_TIME ( #2, #158 ) ;
#126 = CARTESIAN_POINT ( 'NONE',  ( -6.750000000000000000, 0.000000000000000000, 125.0000000000000000 ) ) ;
#127 = ORIENTED_EDGE ( 'NONE', *, *, #38, .F. ) ;
#128 = APPROVAL_STATUS ( 'not_yet_approved' ) ;
#129 = CARTESIAN_POINT ( 'NONE',  ( 0.000000000000000000, 0.000000000000000000, 7.000000000000000000 ) ) ;
#130 = ORIENTED_EDGE ( 'NONE', *, *, #25, .F. ) ;
#131 = CC_DESIGN_APPROVAL ( #140, ( #201 ) ) ;
#132 = ORIENTED_EDGE ( 'NONE', *, *, #52, .F. ) ;
#133 = VECTOR ( 'NONE', #142, 1000.000000000000000 ) ;
#134 = DIRECTION ( 'NONE',  ( -0.000000000000000000, -0.000000000000000000, -1.000000000000000000 ) ) ;
#135 = CIRCLE ( 'NONE', #119, 6.750000000000000000 ) ;
#136 = DIRECTION ( 'NONE',  ( -0.000000000000000000, -0.000000000000000000, -1.000000000000000000 ) ) ;
#137 = DIRECTION ( 'NONE',  ( 0.000000000000000000, 0.000000000000000000, 1.000000000000000000 ) ) ;
#138 = CC_DESIGN_APPROVAL ( #212, ( #12 ) ) ;
#139 = CARTESIAN_POINT ( 'NONE',  ( 0.000000000000000000, 0.000000000000000000, 0.000000000000000000 ) ) ;
#140 = APPROVAL ( #83, 'NEURÈENÝ' ) ;
#141 = SECURITY_CLASSIFICATION_LEVEL ( 'unclassified' ) ;
#142 = DIRECTION ( 'NONE',  ( -0.000000000000000000, -0.000000000000000000, -1.000000000000000000 ) ) ;
#143 =( LENGTH_UNIT ( ) NAMED_UNIT ( * ) SI_UNIT ( .MILLI., .METRE. ) );
#144 = CALENDAR_DATE ( 2023, 13, 2 ) ;
#145 = APPROVAL ( #174, 'NEURÈENÝ' ) ;
#146 = ADVANCED_FACE ( 'NONE', ( #191 ), #14, .T. ) ;
#147 = AXIS2_PLACEMENT_3D ( 'NONE', #194, #188, #72 ) ;
#148 = VERTEX_POINT ( 'NONE', #214 ) ;
#149 = ORIENTED_EDGE ( 'NONE', *, *, #38, .T. ) ;
#150 = VERTEX_POINT ( 'NONE', #1 ) ;
#151 = LOCAL_TIME ( 12, 34, 40.00000000000000000, #251 ) ;
#152 = DIRECTION ( 'NONE',  ( 1.000000000000000000, 0.000000000000000000, 0.000000000000000000 ) ) ;
#153 = CARTESIAN_POINT ( 'NONE',  ( 11.00000000000000000, 1.347111479062088405E-15, 0.000000000000000000 ) ) ;
#154 = CIRCLE ( 'NONE', #218, 11.00000000000000000 ) ;
#155 = PERSON_AND_ORGANIZATION_ROLE ( 'creator' ) ;
#156 = VECTOR ( 'NONE', #34, 1000.000000000000000 ) ;
#157 = APPLICATION_PROTOCOL_DEFINITION ( 'international standard', 'config_control_design', 1994, #172 ) ;
#158 = LOCAL_TIME ( 12, 34, 40.00000000000000000, #200 ) ;
#159 = DIRECTION ( 'NONE',  ( 0.000000000000000000, 0.000000000000000000, 1.000000000000000000 ) ) ;
#160 = ADVANCED_FACE ( 'NONE', ( #162 ), #40, .F. ) ;
#161 = DIRECTION ( 'NONE',  ( 1.000000000000000000, 0.000000000000000000, 0.000000000000000000 ) ) ;
#162 = FACE_OUTER_BOUND ( 'NONE', #70, .T. ) ;
#163 = DATE_TIME_ROLE ( 'creation_date' ) ;
#164 = ORIENTED_EDGE ( 'NONE', *, *, #190, .T. ) ;
#165 = CALENDAR_DATE ( 2023, 13, 2 ) ;
#166 = EDGE_LOOP ( 'NONE', ( #130, #132, #69, #164 ) ) ;
#167 = ORIENTED_EDGE ( 'NONE', *, *, #205, .F. ) ;
#168 = CARTESIAN_POINT ( 'NONE',  ( -6.750000000000000000, 0.000000000000000000, 7.000000000000000000 ) ) ;
#169 = ADVANCED_BREP_SHAPE_REPRESENTATION ( '1d3c', ( #98, #193 ), #3 ) ;
#170 = FACE_OUTER_BOUND ( 'NONE', #104, .T. ) ;
#171 = AXIS2_PLACEMENT_3D ( 'NONE', #211, #189, #56 ) ;
#172 = APPLICATION_CONTEXT ( 'configuration controlled 3d designs of mechanical parts and assemblies' ) ;
#173 = PERSON_AND_ORGANIZATION ( #76, #224 ) ;
#174 = APPROVAL_STATUS ( 'not_yet_approved' ) ;
#175 = LINE ( 'NONE', #252, #108 ) ;
#176 = PERSON_AND_ORGANIZATION ( #76, #224 ) ;
#177 = DIRECTION ( 'NONE',  ( 1.000000000000000000, 0.000000000000000000, 0.000000000000000000 ) ) ;
#178 = SHAPE_DEFINITION_REPRESENTATION ( #117, #169 ) ;
#179 = CARTESIAN_POINT ( 'NONE',  ( 0.000000000000000000, 0.000000000000000000, 7.000000000000000000 ) ) ;
#180 = EDGE_CURVE ( 'NONE', #150, #109, #154, .T. ) ;
#181 = COORDINATED_UNIVERSAL_TIME_OFFSET ( 1, 0, .AHEAD. ) ;
#182 = LOCAL_TIME ( 12, 34, 40.00000000000000000, #113 ) ;
#183 = VERTEX_POINT ( 'NONE', #126 ) ;
#184 = EDGE_LOOP ( 'NONE', ( #127, #5, #223, #26 ) ) ;
#185 = AXIS2_PLACEMENT_3D ( 'NONE', #129, #216, #80 ) ;
#186 = CARTESIAN_POINT ( 'NONE',  ( 6.750000000000000000, 8.266365894244634333E-16, 125.0000000000000000 ) ) ;
#187 = CARTESIAN_POINT ( 'NONE',  ( 0.000000000000000000, 0.000000000000000000, 7.000000000000000000 ) ) ;
#188 = DIRECTION ( 'NONE',  ( -0.000000000000000000, -0.000000000000000000, -1.000000000000000000 ) ) ;
#189 = DIRECTION ( 'NONE',  ( 0.000000000000000000, 0.000000000000000000, 1.000000000000000000 ) ) ;
#190 = EDGE_CURVE ( 'NONE', #29, #204, #121, .T. ) ;
#191 = FACE_OUTER_BOUND ( 'NONE', #222, .T. ) ;
#192 = PERSON_AND_ORGANIZATION ( #76, #224 ) ;
#193 = AXIS2_PLACEMENT_3D ( 'NONE', #249, #73, #120 ) ;
#194 = CARTESIAN_POINT ( 'NONE',  ( 0.000000000000000000, 0.000000000000000000, 125.0000000000000000 ) ) ;
#195 = DIRECTION ( 'NONE',  ( 0.000000000000000000, 0.000000000000000000, 1.000000000000000000 ) ) ;
#196 = FACE_OUTER_BOUND ( 'NONE', #6, .T. ) ;
#197 = AXIS2_PLACEMENT_3D ( 'NONE', #226, #136, #209 ) ;
#198 = PERSON_AND_ORGANIZATION_ROLE ( 'classification_officer' ) ;
#199 = DIRECTION ( 'NONE',  ( -0.000000000000000000, -0.000000000000000000, -1.000000000000000000 ) ) ;
#200 = COORDINATED_UNIVERSAL_TIME_OFFSET ( 1, 0, .AHEAD. ) ;
#201 = SECURITY_CLASSIFICATION ( '', '', #141 ) ;
#202 = ORIENTED_EDGE ( 'NONE', *, *, #240, .T. ) ;
#203 = VERTEX_POINT ( 'NONE', #239 ) ;
#204 = VERTEX_POINT ( 'NONE', #124 ) ;
#205 = EDGE_CURVE ( 'NONE', #148, #150, #175, .T. ) ;
#206 = DESIGN_CONTEXT ( 'detailed design', #172, 'design' ) ;
#207 = DIRECTION ( 'NONE',  ( 0.000000000000000000, 0.000000000000000000, 1.000000000000000000 ) ) ;
#208 = CC_DESIGN_PERSON_AND_ORGANIZATION_ASSIGNMENT ( #235, #62, ( #12 ) ) ;
#209 = DIRECTION ( 'NONE',  ( -1.000000000000000000, 0.000000000000000000, 0.000000000000000000 ) ) ;
#210 =( NAMED_UNIT ( * ) PLANE_ANGLE_UNIT ( ) SI_UNIT ( $, .RADIAN. ) );
#211 = CARTESIAN_POINT ( 'NONE',  ( 0.000000000000000000, 0.000000000000000000, 7.000000000000000000 ) ) ;
#212 = APPROVAL ( #128, 'NEURÈENÝ' ) ;
#213 = MECHANICAL_CONTEXT ( 'NONE', #45, 'mechanical' ) ;
#214 = CARTESIAN_POINT ( 'NONE',  ( -11.00000000000000000, 0.000000000000000000, 7.000000000000000000 ) ) ;
#215 = ADVANCED_FACE ( 'NONE', ( #236, #196 ), #102, .T. ) ;
#216 = DIRECTION ( 'NONE',  ( 0.000000000000000000, 0.000000000000000000, 1.000000000000000000 ) ) ;
#217 = PERSON_AND_ORGANIZATION ( #76, #224 ) ;
#218 = AXIS2_PLACEMENT_3D ( 'NONE', #139, #195, #96 ) ;
#219 = PERSON_AND_ORGANIZATION ( #76, #224 ) ;
#220 = AXIS2_PLACEMENT_3D ( 'NONE', #233, #159, #161 ) ;
#221 = EDGE_LOOP ( 'NONE', ( #244, #66 ) ) ;
#222 = EDGE_LOOP ( 'NONE', ( #105, #149 ) ) ;
#223 = ORIENTED_EDGE ( 'NONE', *, *, #60, .T. ) ;
#224 = ORGANIZATION ( 'NEURÈENÝ', 'NEURÈENÝ', '' ) ;
#225 = CARTESIAN_POINT ( 'NONE',  ( 11.00000000000000000, 1.347111479062088405E-15, 7.000000000000000000 ) ) ;
#226 = CARTESIAN_POINT ( 'NONE',  ( 0.000000000000000000, 0.000000000000000000, 125.0000000000000000 ) ) ;
#227 = CC_DESIGN_SECURITY_CLASSIFICATION ( #201, ( #12 ) ) ;
#228 = EDGE_CURVE ( 'NONE', #109, #150, #75, .T. ) ;
#229 = DIRECTION ( 'NONE',  ( -1.000000000000000000, 0.000000000000000000, 0.000000000000000000 ) ) ;
#230 = CALENDAR_DATE ( 2023, 13, 2 ) ;
#231 = AXIS2_PLACEMENT_3D ( 'NONE', #187, #9, #88 ) ;
#232 = APPROVAL_PERSON_ORGANIZATION ( #21, #140, #64 ) ;
#233 = CARTESIAN_POINT ( 'NONE',  ( 0.000000000000000000, 0.000000000000000000, 7.000000000000000000 ) ) ;
#234 = ORIENTED_EDGE ( 'NONE', *, *, #228, .F. ) ;
#235 = PERSON_AND_ORGANIZATION ( #76, #224 ) ;
#236 = FACE_BOUND ( 'NONE', #221, .T. ) ;
#237 = CLOSED_SHELL ( 'NONE', ( #97, #106, #28, #215, #160, #123, #146 ) ) ;
#238 = CIRCLE ( 'NONE', #220, 11.00000000000000000 ) ;
#239 = CARTESIAN_POINT ( 'NONE',  ( 6.750000000000000000, 8.266365894244634333E-16, 125.0000000000000000 ) ) ;
#240 = EDGE_CURVE ( 'NONE', #48, #148, #238, .T. ) ;
#241 = APPROVAL_DATE_TIME ( #23, #140 ) ;
#242 = ORIENTED_EDGE ( 'NONE', *, *, #84, .F. ) ;
#243 = ORIENTED_EDGE ( 'NONE', *, *, #205, .T. ) ;
#244 = ORIENTED_EDGE ( 'NONE', *, *, #190, .F. ) ;
#245 = DIRECTION ( 'NONE',  ( 0.000000000000000000, 0.000000000000000000, 1.000000000000000000 ) ) ;
#246 = APPROVAL_PERSON_ORGANIZATION ( #219, #212, #85 ) ;
#247 =( NAMED_UNIT ( * ) SI_UNIT ( $, .STERADIAN. ) SOLID_ANGLE_UNIT ( ) );
#248 = CARTESIAN_POINT ( 'NONE',  ( 11.00000000000000000, 1.347111479062088405E-15, 7.000000000000000000 ) ) ;
#249 = CARTESIAN_POINT ( 'NONE',  ( 0.000000000000000000, 0.000000000000000000, 0.000000000000000000 ) ) ;
#250 = EDGE_CURVE ( 'NONE', #183, #29, #253, .T. ) ;
#251 = COORDINATED_UNIVERSAL_TIME_OFFSET ( 1, 0, .AHEAD. ) ;
#252 = CARTESIAN_POINT ( 'NONE',  ( -11.00000000000000000, 0.000000000000000000, 7.000000000000000000 ) ) ;
#253 = LINE ( 'NONE', #57, #133 ) ;
#254 = APPROVAL_DATE_TIME ( #125, #212 ) ;
#255 = CARTESIAN_POINT ( 'NONE',  ( 0.000000000000000000, 0.000000000000000000, 0.000000000000000000 ) ) ;
ENDSEC;
END-ISO-10303-21;
