ISO-10303-21;
HEADER;
FILE_DESCRIPTION (( 'STEP AP203' ),
    '1' );
FILE_NAME ('c472.STEP',
    '2023-02-13T14:23:59',
    ( '' ),
    ( '' ),
    'SwSTEP 2.0',
    'SolidWorks 2019',
    '' );
FILE_SCHEMA (( 'CONFIG_CONTROL_DESIGN' ));
ENDSEC;

DATA;
#1 = COORDINATED_UNIVERSAL_TIME_OFFSET ( 1, 0, .AHEAD. ) ;
#2 = FACE_OUTER_BOUND ( 'NONE', #32, .T. ) ;
#3 = APPROVAL ( #76, 'NEURÈENÝ' ) ;
#4 = APPLICATION_CONTEXT ( 'configuration controlled 3d designs of mechanical parts and assemblies' ) ;
#5 = DIRECTION ( 'NONE',  ( -1.000000000000000000, 0.000000000000000000, 0.000000000000000000 ) ) ;
#6 =( NAMED_UNIT ( * ) PLANE_ANGLE_UNIT ( ) SI_UNIT ( $, .RADIAN. ) );
#7 = DIRECTION ( 'NONE',  ( 1.000000000000000000, 0.000000000000000000, -0.000000000000000000 ) ) ;
#8 = PRODUCT_RELATED_PRODUCT_CATEGORY ( 'detail', '', ( #107 ) ) ;
#9 = CARTESIAN_POINT ( 'NONE',  ( 0.000000000000000000, 0.000000000000000000, 5.000000000000000000 ) ) ;
#10 = ORGANIZATION ( 'NEURÈENÝ', 'NEURÈENÝ', '' ) ;
#11 = ORIENTED_EDGE ( 'NONE', *, *, #237, .F. ) ;
#12 = CARTESIAN_POINT ( 'NONE',  ( 6.000000000000000888, 7.347880794884120722E-16, 0.000000000000000000 ) ) ;
#13 = ADVANCED_FACE ( 'NONE', ( #250 ), #69, .F. ) ;
#14 = CARTESIAN_POINT ( 'NONE',  ( 0.000000000000000000, 0.000000000000000000, 5.000000000000000000 ) ) ;
#15 = CARTESIAN_POINT ( 'NONE',  ( -3.750000000000000000, 0.000000000000000000, 400.0000000000000000 ) ) ;
#16 = UNCERTAINTY_MEASURE_WITH_UNIT (LENGTH_MEASURE( 1.000000000000000082E-05 ), #200, 'distance_accuracy_value', 'NONE');
#17 = CARTESIAN_POINT ( 'NONE',  ( -6.000000000000000888, 0.000000000000000000, 5.000000000000000000 ) ) ;
#18 = EDGE_LOOP ( 'NONE', ( #190, #113 ) ) ;
#19 = APPLICATION_PROTOCOL_DEFINITION ( 'international standard', 'config_control_design', 1994, #161 ) ;
#20 = APPROVAL_PERSON_ORGANIZATION ( #85, #116, #144 ) ;
#21 = COORDINATED_UNIVERSAL_TIME_OFFSET ( 1, 0, .AHEAD. ) ;
#22 = AXIS2_PLACEMENT_3D ( 'NONE', #140, #162, #5 ) ;
#23 = DIRECTION ( 'NONE',  ( -0.000000000000000000, -0.000000000000000000, -1.000000000000000000 ) ) ;
#24 = EDGE_CURVE ( 'NONE', #204, #149, #66, .T. ) ;
#25 = DIRECTION ( 'NONE',  ( 1.000000000000000000, 0.000000000000000000, -0.000000000000000000 ) ) ;
#26 = FACE_OUTER_BOUND ( 'NONE', #206, .T. ) ;
#27 = ORIENTED_EDGE ( 'NONE', *, *, #193, .T. ) ;
#28 = DIRECTION ( 'NONE',  ( 1.000000000000000000, 0.000000000000000000, 0.000000000000000000 ) ) ;
#29 = CIRCLE ( 'NONE', #108, 3.750000000000000000 ) ;
#30 = CC_DESIGN_SECURITY_CLASSIFICATION ( #194, ( #208 ) ) ;
#31 = VERTEX_POINT ( 'NONE', #12 ) ;
#32 = EDGE_LOOP ( 'NONE', ( #11, #88, #130, #184 ) ) ;
#33 = CALENDAR_DATE ( 2023, 13, 2 ) ;
#34 = DIRECTION ( 'NONE',  ( 0.000000000000000000, 0.000000000000000000, 1.000000000000000000 ) ) ;
#35 = ORIENTED_EDGE ( 'NONE', *, *, #73, .T. ) ;
#36 = DIRECTION ( 'NONE',  ( 1.000000000000000000, 0.000000000000000000, -0.000000000000000000 ) ) ;
#37 = VECTOR ( 'NONE', #47, 1000.000000000000000 ) ;
#38 = CARTESIAN_POINT ( 'NONE',  ( 3.750000000000000000, 4.592425496802572986E-16, 400.0000000000000000 ) ) ;
#39 = CC_DESIGN_PERSON_AND_ORGANIZATION_ASSIGNMENT ( #255, #209, ( #107 ) ) ;
#40 = PERSON_AND_ORGANIZATION_ROLE ( 'design_supplier' ) ;
#41 = ADVANCED_FACE ( 'NONE', ( #150, #128 ), #183, .T. ) ;
#42 =( GEOMETRIC_REPRESENTATION_CONTEXT ( 3 ) GLOBAL_UNCERTAINTY_ASSIGNED_CONTEXT ( ( #16 ) ) GLOBAL_UNIT_ASSIGNED_CONTEXT ( ( #200, #6, #155 ) ) REPRESENTATION_CONTEXT ( 'NONE', 'WORKASPACE' ) );
#43 = DATE_AND_TIME ( #212, #164 ) ;
#44 = APPROVAL_DATE_TIME ( #48, #116 ) ;
#45 = DIRECTION ( 'NONE',  ( 0.000000000000000000, 0.000000000000000000, 1.000000000000000000 ) ) ;
#46 = DIRECTION ( 'NONE',  ( -0.000000000000000000, -0.000000000000000000, -1.000000000000000000 ) ) ;
#47 = DIRECTION ( 'NONE',  ( -0.000000000000000000, -0.000000000000000000, -1.000000000000000000 ) ) ;
#48 = DATE_AND_TIME ( #221, #227 ) ;
#49 = ORIENTED_EDGE ( 'NONE', *, *, #237, .T. ) ;
#50 = CIRCLE ( 'NONE', #126, 6.000000000000000888 ) ;
#51 = APPROVAL_PERSON_ORGANIZATION ( #132, #3, #158 ) ;
#52 = ORIENTED_EDGE ( 'NONE', *, *, #24, .F. ) ;
#53 = EDGE_LOOP ( 'NONE', ( #168, #49, #27, #223 ) ) ;
#54 = APPLICATION_PROTOCOL_DEFINITION ( 'international standard', 'config_control_design', 1994, #4 ) ;
#55 = EDGE_LOOP ( 'NONE', ( #86, #35, #225, #52 ) ) ;
#56 = AXIS2_PLACEMENT_3D ( 'NONE', #203, #169, #28 ) ;
#57 = CARTESIAN_POINT ( 'NONE',  ( 3.750000000000000000, 4.592425496802572986E-16, 5.000000000000000000 ) ) ;
#58 = APPROVAL_PERSON_ORGANIZATION ( #233, #196, #138 ) ;
#59 = DATE_TIME_ROLE ( 'creation_date' ) ;
#60 = CARTESIAN_POINT ( 'NONE',  ( 0.000000000000000000, 0.000000000000000000, 400.0000000000000000 ) ) ;
#61 = AXIS2_PLACEMENT_3D ( 'NONE', #14, #91, #243 ) ;
#62 = CARTESIAN_POINT ( 'NONE',  ( 6.000000000000000888, 7.347880794884120722E-16, 5.000000000000000000 ) ) ;
#63 = DATE_TIME_ROLE ( 'classification_date' ) ;
#64 = AXIS2_PLACEMENT_3D ( 'NONE', #236, #106, #83 ) ;
#65 = DIRECTION ( 'NONE',  ( 1.000000000000000000, 0.000000000000000000, 0.000000000000000000 ) ) ;
#66 = LINE ( 'NONE', #15, #37 ) ;
#67 = CC_DESIGN_DATE_AND_TIME_ASSIGNMENT ( #245, #63, ( #194 ) ) ;
#68 = DIRECTION ( 'NONE',  ( 0.000000000000000000, 0.000000000000000000, 1.000000000000000000 ) ) ;
#69 = PLANE ( 'NONE',  #226 ) ;
#70 = ORIENTED_EDGE ( 'NONE', *, *, #24, .T. ) ;
#71 = CARTESIAN_POINT ( 'NONE',  ( 3.750000000000000000, 4.592425496802572986E-16, 400.0000000000000000 ) ) ;
#72 = DIRECTION ( 'NONE',  ( 0.000000000000000000, 0.000000000000000000, 1.000000000000000000 ) ) ;
#73 = EDGE_CURVE ( 'NONE', #202, #94, #165, .T. ) ;
#74 = AXIS2_PLACEMENT_3D ( 'NONE', #192, #252, #133 ) ;
#75 = DIRECTION ( 'NONE',  ( 0.000000000000000000, 0.000000000000000000, 1.000000000000000000 ) ) ;
#76 = APPROVAL_STATUS ( 'not_yet_approved' ) ;
#77 = PERSON_AND_ORGANIZATION_ROLE ( 'creator' ) ;
#78 = CYLINDRICAL_SURFACE ( 'NONE', #134, 3.750000000000000000 ) ;
#79 = PERSON_AND_ORGANIZATION_ROLE ( 'classification_officer' ) ;
#80 = CARTESIAN_POINT ( 'NONE',  ( 0.000000000000000000, 0.000000000000000000, 0.000000000000000000 ) ) ;
#81 = VECTOR ( 'NONE', #87, 1000.000000000000000 ) ;
#82 = EDGE_CURVE ( 'NONE', #244, #31, #50, .T. ) ;
#83 = DIRECTION ( 'NONE',  ( -1.000000000000000000, 0.000000000000000000, 0.000000000000000000 ) ) ;
#84 = DIRECTION ( 'NONE',  ( 0.000000000000000000, 0.000000000000000000, 1.000000000000000000 ) ) ;
#85 = PERSON_AND_ORGANIZATION ( #216, #10 ) ;
#86 = ORIENTED_EDGE ( 'NONE', *, *, #122, .F. ) ;
#87 = DIRECTION ( 'NONE',  ( -0.000000000000000000, -0.000000000000000000, -1.000000000000000000 ) ) ;
#88 = ORIENTED_EDGE ( 'NONE', *, *, #201, .F. ) ;
#89 = CARTESIAN_POINT ( 'NONE',  ( 6.000000000000000888, 7.347880794884120722E-16, 5.000000000000000000 ) ) ;
#90 = ORIENTED_EDGE ( 'NONE', *, *, #73, .F. ) ;
#91 = DIRECTION ( 'NONE',  ( 0.000000000000000000, 0.000000000000000000, 1.000000000000000000 ) ) ;
#92 = CARTESIAN_POINT ( 'NONE',  ( -3.750000000000000000, 0.000000000000000000, 400.0000000000000000 ) ) ;
#93 = CC_DESIGN_APPROVAL ( #3, ( #153 ) ) ;
#94 = VERTEX_POINT ( 'NONE', #57 ) ;
#95 = COORDINATED_UNIVERSAL_TIME_OFFSET ( 1, 0, .AHEAD. ) ;
#96 = VECTOR ( 'NONE', #46, 1000.000000000000000 ) ;
#97 = DIRECTION ( 'NONE',  ( 0.000000000000000000, 0.000000000000000000, 1.000000000000000000 ) ) ;
#98 = FACE_OUTER_BOUND ( 'NONE', #53, .T. ) ;
#99 = CC_DESIGN_PERSON_AND_ORGANIZATION_ASSIGNMENT ( #179, #79, ( #194 ) ) ;
#100 = AXIS2_PLACEMENT_3D ( 'NONE', #129, #34, #249 ) ;
#101 = AXIS2_PLACEMENT_3D ( 'NONE', #214, #45, #25 ) ;
#102 = SECURITY_CLASSIFICATION_LEVEL ( 'unclassified' ) ;
#103 = PERSON_AND_ORGANIZATION ( #216, #10 ) ;
#104 = FACE_OUTER_BOUND ( 'NONE', #55, .T. ) ;
#105 = ADVANCED_FACE ( 'NONE', ( #98 ), #232, .T. ) ;
#106 = DIRECTION ( 'NONE',  ( -0.000000000000000000, -0.000000000000000000, -1.000000000000000000 ) ) ;
#107 = PRODUCT ( 'c472', 'c472', '', ( #230 ) ) ;
#108 = AXIS2_PLACEMENT_3D ( 'NONE', #154, #121, #180 ) ;
#109 = DIRECTION ( 'NONE',  ( -1.000000000000000000, 0.000000000000000000, 0.000000000000000000 ) ) ;
#110 = EDGE_LOOP ( 'NONE', ( #188, #152 ) ) ;
#111 = AXIS2_PLACEMENT_3D ( 'NONE', #222, #114, #219 ) ;
#112 = LINE ( 'NONE', #17, #81 ) ;
#113 = ORIENTED_EDGE ( 'NONE', *, *, #122, .T. ) ;
#114 = DIRECTION ( 'NONE',  ( 0.000000000000000000, 0.000000000000000000, 1.000000000000000000 ) ) ;
#115 = CARTESIAN_POINT ( 'NONE',  ( 0.000000000000000000, 0.000000000000000000, 0.000000000000000000 ) ) ;
#116 = APPROVAL ( #182, 'NEURÈENÝ' ) ;
#117 = EDGE_LOOP ( 'NONE', ( #241, #147 ) ) ;
#118 = CIRCLE ( 'NONE', #111, 3.750000000000000000 ) ;
#119 = MANIFOLD_SOLID_BREP ( 'Pøidat vysunutím3', #248 ) ;
#120 = APPROVAL_DATE_TIME ( #43, #196 ) ;
#121 = DIRECTION ( 'NONE',  ( 0.000000000000000000, 0.000000000000000000, 1.000000000000000000 ) ) ;
#122 = EDGE_CURVE ( 'NONE', #202, #204, #29, .T. ) ;
#123 = SHAPE_DEFINITION_REPRESENTATION ( #142, #228 ) ;
#124 = PERSON_AND_ORGANIZATION_ROLE ( 'creator' ) ;
#125 = DIRECTION ( 'NONE',  ( 0.000000000000000000, 0.000000000000000000, 1.000000000000000000 ) ) ;
#126 = AXIS2_PLACEMENT_3D ( 'NONE', #157, #75, #160 ) ;
#127 = AXIS2_PLACEMENT_3D ( 'NONE', #175, #97, #254 ) ;
#128 = FACE_OUTER_BOUND ( 'NONE', #110, .T. ) ;
#129 = CARTESIAN_POINT ( 'NONE',  ( 0.000000000000000000, 0.000000000000000000, 5.000000000000000000 ) ) ;
#130 = ORIENTED_EDGE ( 'NONE', *, *, #215, .T. ) ;
#131 = DESIGN_CONTEXT ( 'detailed design', #4, 'design' ) ;
#132 = PERSON_AND_ORGANIZATION ( #216, #10 ) ;
#133 = DIRECTION ( 'NONE',  ( -1.000000000000000000, 0.000000000000000000, 0.000000000000000000 ) ) ;
#134 = AXIS2_PLACEMENT_3D ( 'NONE', #60, #23, #109 ) ;
#135 = AXIS2_PLACEMENT_3D ( 'NONE', #9, #68, #65 ) ;
#136 = CC_DESIGN_DATE_AND_TIME_ASSIGNMENT ( #235, #59, ( #153 ) ) ;
#137 = PERSON_AND_ORGANIZATION ( #216, #10 ) ;
#138 = APPROVAL_ROLE ( '' ) ;
#139 = ADVANCED_FACE ( 'NONE', ( #104 ), #195, .T. ) ;
#140 = CARTESIAN_POINT ( 'NONE',  ( 0.000000000000000000, 0.000000000000000000, 5.000000000000000000 ) ) ;
#141 = LOCAL_TIME ( 15, 23, 59.00000000000000000, #95 ) ;
#142 = PRODUCT_DEFINITION_SHAPE ( 'NONE', 'NONE',  #153 ) ;
#143 = PLANE ( 'NONE',  #101 ) ;
#144 = APPROVAL_ROLE ( '' ) ;
#145 = CC_DESIGN_PERSON_AND_ORGANIZATION_ASSIGNMENT ( #251, #124, ( #153 ) ) ;
#146 = CIRCLE ( 'NONE', #61, 6.000000000000000888 ) ;
#147 = ORIENTED_EDGE ( 'NONE', *, *, #193, .F. ) ;
#148 = COORDINATED_UNIVERSAL_TIME_OFFSET ( 1, 0, .AHEAD. ) ;
#149 = VERTEX_POINT ( 'NONE', #239 ) ;
#150 = FACE_BOUND ( 'NONE', #170, .T. ) ;
#151 = VERTEX_POINT ( 'NONE', #62 ) ;
#152 = ORIENTED_EDGE ( 'NONE', *, *, #240, .T. ) ;
#153 = PRODUCT_DEFINITION ( 'NEZNÁMÝ', '', #208, #131 ) ;
#154 = CARTESIAN_POINT ( 'NONE',  ( 0.000000000000000000, 0.000000000000000000, 400.0000000000000000 ) ) ;
#155 =( NAMED_UNIT ( * ) SI_UNIT ( $, .STERADIAN. ) SOLID_ANGLE_UNIT ( ) );
#156 = CC_DESIGN_APPROVAL ( #116, ( #194 ) ) ;
#157 = CARTESIAN_POINT ( 'NONE',  ( 0.000000000000000000, 0.000000000000000000, 0.000000000000000000 ) ) ;
#158 = APPROVAL_ROLE ( '' ) ;
#159 = CC_DESIGN_PERSON_AND_ORGANIZATION_ASSIGNMENT ( #137, #40, ( #208 ) ) ;
#160 = DIRECTION ( 'NONE',  ( 1.000000000000000000, 0.000000000000000000, 0.000000000000000000 ) ) ;
#161 = APPLICATION_CONTEXT ( 'configuration controlled 3d designs of mechanical parts and assemblies' ) ;
#162 = DIRECTION ( 'NONE',  ( -0.000000000000000000, -0.000000000000000000, -1.000000000000000000 ) ) ;
#163 = DIRECTION ( 'NONE',  ( 1.000000000000000000, 0.000000000000000000, 0.000000000000000000 ) ) ;
#164 = LOCAL_TIME ( 15, 23, 59.00000000000000000, #213 ) ;
#165 = LINE ( 'NONE', #38, #211 ) ;
#166 = LOCAL_TIME ( 15, 23, 59.00000000000000000, #21 ) ;
#167 = AXIS2_PLACEMENT_3D ( 'NONE', #80, #84, #163 ) ;
#168 = ORIENTED_EDGE ( 'NONE', *, *, #240, .F. ) ;
#169 = DIRECTION ( 'NONE',  ( 0.000000000000000000, 0.000000000000000000, 1.000000000000000000 ) ) ;
#170 = EDGE_LOOP ( 'NONE', ( #229, #172 ) ) ;
#171 = LINE ( 'NONE', #89, #96 ) ;
#172 = ORIENTED_EDGE ( 'NONE', *, *, #246, .F. ) ;
#173 = APPROVAL_DATE_TIME ( #191, #3 ) ;
#174 = DIRECTION ( 'NONE',  ( -0.000000000000000000, -0.000000000000000000, -1.000000000000000000 ) ) ;
#175 = CARTESIAN_POINT ( 'NONE',  ( 0.000000000000000000, 0.000000000000000000, 0.000000000000000000 ) ) ;
#176 = LOCAL_TIME ( 15, 23, 59.00000000000000000, #1 ) ;
#177 = ADVANCED_FACE ( 'NONE', ( #198 ), #143, .T. ) ;
#178 = ADVANCED_FACE ( 'NONE', ( #26 ), #78, .T. ) ;
#179 = PERSON_AND_ORGANIZATION ( #216, #10 ) ;
#180 = DIRECTION ( 'NONE',  ( 1.000000000000000000, 0.000000000000000000, 0.000000000000000000 ) ) ;
#181 = CYLINDRICAL_SURFACE ( 'NONE', #22, 6.000000000000000888 ) ;
#182 = APPROVAL_STATUS ( 'not_yet_approved' ) ;
#183 = PLANE ( 'NONE',  #185 ) ;
#184 = ORIENTED_EDGE ( 'NONE', *, *, #82, .T. ) ;
#185 = AXIS2_PLACEMENT_3D ( 'NONE', #189, #72, #7 ) ;
#186 = ADVANCED_FACE ( 'NONE', ( #2 ), #181, .T. ) ;
#187 = CARTESIAN_POINT ( 'NONE',  ( -6.000000000000000888, 0.000000000000000000, 5.000000000000000000 ) ) ;
#188 = ORIENTED_EDGE ( 'NONE', *, *, #201, .T. ) ;
#189 = CARTESIAN_POINT ( 'NONE',  ( 0.000000000000000000, 0.000000000000000000, 5.000000000000000000 ) ) ;
#190 = ORIENTED_EDGE ( 'NONE', *, *, #231, .T. ) ;
#191 = DATE_AND_TIME ( #207, #141 ) ;
#192 = CARTESIAN_POINT ( 'NONE',  ( 0.000000000000000000, 0.000000000000000000, 5.000000000000000000 ) ) ;
#193 = EDGE_CURVE ( 'NONE', #31, #244, #199, .T. ) ;
#194 = SECURITY_CLASSIFICATION ( '', '', #102 ) ;
#195 = CYLINDRICAL_SURFACE ( 'NONE', #64, 3.750000000000000000 ) ;
#196 = APPROVAL ( #234, 'NEURÈENÝ' ) ;
#197 = CALENDAR_DATE ( 2023, 13, 2 ) ;
#198 = FACE_OUTER_BOUND ( 'NONE', #18, .T. ) ;
#199 = CIRCLE ( 'NONE', #167, 6.000000000000000888 ) ;
#200 =( LENGTH_UNIT ( ) NAMED_UNIT ( * ) SI_UNIT ( .MILLI., .METRE. ) );
#201 = EDGE_CURVE ( 'NONE', #220, #151, #217, .T. ) ;
#202 = VERTEX_POINT ( 'NONE', #71 ) ;
#203 = CARTESIAN_POINT ( 'NONE',  ( 0.000000000000000000, 0.000000000000000000, 5.000000000000000000 ) ) ;
#204 = VERTEX_POINT ( 'NONE', #92 ) ;
#205 = CIRCLE ( 'NONE', #135, 3.750000000000000000 ) ;
#206 = EDGE_LOOP ( 'NONE', ( #90, #247, #70, #242 ) ) ;
#207 = CALENDAR_DATE ( 2023, 13, 2 ) ;
#208 = PRODUCT_DEFINITION_FORMATION_WITH_SPECIFIED_SOURCE ( 'LIBOVOLNÝ', '', #107, .NOT_KNOWN. ) ;
#209 = PERSON_AND_ORGANIZATION_ROLE ( 'design_owner' ) ;
#210 = CC_DESIGN_PERSON_AND_ORGANIZATION_ASSIGNMENT ( #103, #77, ( #208 ) ) ;
#211 = VECTOR ( 'NONE', #174, 1000.000000000000000 ) ;
#212 = CALENDAR_DATE ( 2023, 13, 2 ) ;
#213 = COORDINATED_UNIVERSAL_TIME_OFFSET ( 1, 0, .AHEAD. ) ;
#214 = CARTESIAN_POINT ( 'NONE',  ( 0.000000000000000000, 0.000000000000000000, 400.0000000000000000 ) ) ;
#215 = EDGE_CURVE ( 'NONE', #220, #244, #112, .T. ) ;
#216 = PERSON ( 'NEURÈENÝ', 'NEURÈENÝ', 'NEURÈENÝ', ('NEURÈENÝ'), ('NEURÈENÝ'), ('NEURÈENÝ') ) ;
#217 = CIRCLE ( 'NONE', #56, 6.000000000000000888 ) ;
#218 = EDGE_CURVE ( 'NONE', #149, #94, #205, .T. ) ;
#219 = DIRECTION ( 'NONE',  ( 1.000000000000000000, 0.000000000000000000, 0.000000000000000000 ) ) ;
#220 = VERTEX_POINT ( 'NONE', #187 ) ;
#221 = CALENDAR_DATE ( 2023, 13, 2 ) ;
#222 = CARTESIAN_POINT ( 'NONE',  ( 0.000000000000000000, 0.000000000000000000, 400.0000000000000000 ) ) ;
#223 = ORIENTED_EDGE ( 'NONE', *, *, #215, .F. ) ;
#224 = CARTESIAN_POINT ( 'NONE',  ( -6.000000000000000888, 0.000000000000000000, 0.000000000000000000 ) ) ;
#225 = ORIENTED_EDGE ( 'NONE', *, *, #246, .T. ) ;
#226 = AXIS2_PLACEMENT_3D ( 'NONE', #115, #125, #36 ) ;
#227 = LOCAL_TIME ( 15, 23, 59.00000000000000000, #148 ) ;
#228 = ADVANCED_BREP_SHAPE_REPRESENTATION ( 'c472', ( #119, #127 ), #42 ) ;
#229 = ORIENTED_EDGE ( 'NONE', *, *, #218, .F. ) ;
#230 = MECHANICAL_CONTEXT ( 'NONE', #161, 'mechanical' ) ;
#231 = EDGE_CURVE ( 'NONE', #204, #202, #118, .T. ) ;
#232 = CYLINDRICAL_SURFACE ( 'NONE', #74, 6.000000000000000888 ) ;
#233 = PERSON_AND_ORGANIZATION ( #216, #10 ) ;
#234 = APPROVAL_STATUS ( 'not_yet_approved' ) ;
#235 = DATE_AND_TIME ( #197, #166 ) ;
#236 = CARTESIAN_POINT ( 'NONE',  ( 0.000000000000000000, 0.000000000000000000, 400.0000000000000000 ) ) ;
#237 = EDGE_CURVE ( 'NONE', #151, #31, #171, .T. ) ;
#238 = CC_DESIGN_APPROVAL ( #196, ( #208 ) ) ;
#239 = CARTESIAN_POINT ( 'NONE',  ( -3.750000000000000000, 0.000000000000000000, 5.000000000000000000 ) ) ;
#240 = EDGE_CURVE ( 'NONE', #151, #220, #146, .T. ) ;
#241 = ORIENTED_EDGE ( 'NONE', *, *, #82, .F. ) ;
#242 = ORIENTED_EDGE ( 'NONE', *, *, #218, .T. ) ;
#243 = DIRECTION ( 'NONE',  ( 1.000000000000000000, 0.000000000000000000, 0.000000000000000000 ) ) ;
#244 = VERTEX_POINT ( 'NONE', #224 ) ;
#245 = DATE_AND_TIME ( #33, #176 ) ;
#246 = EDGE_CURVE ( 'NONE', #94, #149, #253, .T. ) ;
#247 = ORIENTED_EDGE ( 'NONE', *, *, #231, .F. ) ;
#248 = CLOSED_SHELL ( 'NONE', ( #139, #105, #186, #41, #13, #178, #177 ) ) ;
#249 = DIRECTION ( 'NONE',  ( 1.000000000000000000, 0.000000000000000000, 0.000000000000000000 ) ) ;
#250 = FACE_OUTER_BOUND ( 'NONE', #117, .T. ) ;
#251 = PERSON_AND_ORGANIZATION ( #216, #10 ) ;
#252 = DIRECTION ( 'NONE',  ( -0.000000000000000000, -0.000000000000000000, -1.000000000000000000 ) ) ;
#253 = CIRCLE ( 'NONE', #100, 3.750000000000000000 ) ;
#254 = DIRECTION ( 'NONE',  ( 1.000000000000000000, 0.000000000000000000, 0.000000000000000000 ) ) ;
#255 = PERSON_AND_ORGANIZATION ( #216, #10 ) ;
ENDSEC;
END-ISO-10303-21;
