ISO-10303-21;
HEADER;
FILE_DESCRIPTION (( 'STEP AP203' ),
    '1' );
FILE_NAME ('193b.STEP',
    '2022-07-07T17:55:48',
    ( '' ),
    ( '' ),
    'SwSTEP 2.0',
    'SolidWorks 2019',
    '' );
FILE_SCHEMA (( 'CONFIG_CONTROL_DESIGN' ));
ENDSEC;

DATA;
#1 = AXIS2_PLACEMENT_3D ( 'NONE', #227, #52, #15 ) ;
#2 = CC_DESIGN_SECURITY_CLASSIFICATION ( #236, ( #57 ) ) ;
#3 = ORIENTED_EDGE ( 'NONE', *, *, #11, .F. ) ;
#4 = CARTESIAN_POINT ( 'NONE',  ( 1.500000000000000222, 1.836970198721030181E-16, 3.000000000000000000 ) ) ;
#5 = CC_DESIGN_PERSON_AND_ORGANIZATION_ASSIGNMENT ( #71, #109, ( #47 ) ) ;
#6 = VERTEX_POINT ( 'NONE', #139 ) ;
#7 = PLANE ( 'NONE',  #42 ) ;
#8 = VERTEX_POINT ( 'NONE', #231 ) ;
#9 = PLANE ( 'NONE',  #150 ) ;
#10 = LINE ( 'NONE', #248, #100 ) ;
#11 = EDGE_CURVE ( 'NONE', #8, #26, #20, .T. ) ;
#12 = CALENDAR_DATE ( 2022, 7, 7 ) ;
#13 = FACE_OUTER_BOUND ( 'NONE', #23, .T. ) ;
#14 = COORDINATED_UNIVERSAL_TIME_OFFSET ( 1, 0, .AHEAD. ) ;
#15 = DIRECTION ( 'NONE',  ( -1.000000000000000000, 0.000000000000000000, 0.000000000000000000 ) ) ;
#16 =( GEOMETRIC_REPRESENTATION_CONTEXT ( 3 ) GLOBAL_UNCERTAINTY_ASSIGNED_CONTEXT ( ( #138 ) ) GLOBAL_UNIT_ASSIGNED_CONTEXT ( ( #80, #243, #221 ) ) REPRESENTATION_CONTEXT ( 'NONE', 'WORKASPACE' ) );
#17 = DATE_TIME_ROLE ( 'classification_date' ) ;
#18 = AXIS2_PLACEMENT_3D ( 'NONE', #124, #30, #101 ) ;
#19 = EDGE_CURVE ( 'NONE', #8, #6, #10, .T. ) ;
#20 = CIRCLE ( 'NONE', #18, 1.500000000000000222 ) ;
#21 = CARTESIAN_POINT ( 'NONE',  ( -3.000000000000000444, 0.000000000000000000, 0.000000000000000000 ) ) ;
#22 = LOCAL_TIME ( 19, 55, 48.00000000000000000, #148 ) ;
#23 = EDGE_LOOP ( 'NONE', ( #155, #238, #218, #195 ) ) ;
#24 = MECHANICAL_CONTEXT ( 'NONE', #25, 'mechanical' ) ;
#25 = APPLICATION_CONTEXT ( 'configuration controlled 3d designs of mechanical parts and assemblies' ) ;
#26 = VERTEX_POINT ( 'NONE', #210 ) ;
#27 = CARTESIAN_POINT ( 'NONE',  ( 0.000000000000000000, 0.000000000000000000, 403.0000000000000000 ) ) ;
#28 = DIRECTION ( 'NONE',  ( 1.000000000000000000, 0.000000000000000000, 0.000000000000000000 ) ) ;
#29 = DIRECTION ( 'NONE',  ( -0.000000000000000000, -0.000000000000000000, -1.000000000000000000 ) ) ;
#30 = DIRECTION ( 'NONE',  ( 0.000000000000000000, 0.000000000000000000, 1.000000000000000000 ) ) ;
#31 = COORDINATED_UNIVERSAL_TIME_OFFSET ( 1, 0, .AHEAD. ) ;
#32 = APPROVAL_ROLE ( '' ) ;
#33 = AXIS2_PLACEMENT_3D ( 'NONE', #225, #176, #239 ) ;
#34 = DIRECTION ( 'NONE',  ( 0.000000000000000000, 0.000000000000000000, 1.000000000000000000 ) ) ;
#35 = ADVANCED_FACE ( 'NONE', ( #13 ), #122, .T. ) ;
#36 = CARTESIAN_POINT ( 'NONE',  ( 0.000000000000000000, 0.000000000000000000, 0.000000000000000000 ) ) ;
#37 = PRODUCT_RELATED_PRODUCT_CATEGORY ( 'detail', '', ( #178 ) ) ;
#38 = FACE_OUTER_BOUND ( 'NONE', #224, .T. ) ;
#39 = VECTOR ( 'NONE', #86, 1000.000000000000000 ) ;
#40 = ORIENTED_EDGE ( 'NONE', *, *, #55, .T. ) ;
#41 = CARTESIAN_POINT ( 'NONE',  ( 0.000000000000000000, 0.000000000000000000, 3.000000000000000000 ) ) ;
#42 = AXIS2_PLACEMENT_3D ( 'NONE', #181, #65, #96 ) ;
#43 = DIRECTION ( 'NONE',  ( -1.000000000000000000, 0.000000000000000000, 0.000000000000000000 ) ) ;
#44 = VERTEX_POINT ( 'NONE', #147 ) ;
#45 = DIRECTION ( 'NONE',  ( -0.000000000000000000, -0.000000000000000000, -1.000000000000000000 ) ) ;
#46 = CIRCLE ( 'NONE', #33, 3.000000000000000444 ) ;
#47 = PRODUCT_DEFINITION ( 'NEZNÁMÝ', '', #57, #237 ) ;
#48 = SHAPE_DEFINITION_REPRESENTATION ( #200, #93 ) ;
#49 = DIRECTION ( 'NONE',  ( 1.000000000000000000, 0.000000000000000000, -0.000000000000000000 ) ) ;
#50 = DATE_AND_TIME ( #87, #198 ) ;
#51 = CC_DESIGN_PERSON_AND_ORGANIZATION_ASSIGNMENT ( #106, #149, ( #57 ) ) ;
#52 = DIRECTION ( 'NONE',  ( -0.000000000000000000, -0.000000000000000000, -1.000000000000000000 ) ) ;
#53 = COORDINATED_UNIVERSAL_TIME_OFFSET ( 1, 0, .AHEAD. ) ;
#54 = DATE_AND_TIME ( #12, #120 ) ;
#55 = EDGE_CURVE ( 'NONE', #68, #180, #118, .T. ) ;
#56 = EDGE_CURVE ( 'NONE', #26, #8, #140, .T. ) ;
#57 = PRODUCT_DEFINITION_FORMATION_WITH_SPECIFIED_SOURCE ( 'LIBOVOLNÝ', '', #178, .NOT_KNOWN. ) ;
#58 = APPLICATION_PROTOCOL_DEFINITION ( 'international standard', 'config_control_design', 1994, #25 ) ;
#59 = ORIENTED_EDGE ( 'NONE', *, *, #126, .F. ) ;
#60 = CIRCLE ( 'NONE', #75, 1.500000000000000222 ) ;
#61 = EDGE_LOOP ( 'NONE', ( #193, #59 ) ) ;
#62 = PERSON_AND_ORGANIZATION ( #160, #213 ) ;
#63 = AXIS2_PLACEMENT_3D ( 'NONE', #194, #158, #179 ) ;
#64 = ORIENTED_EDGE ( 'NONE', *, *, #192, .T. ) ;
#65 = DIRECTION ( 'NONE',  ( 0.000000000000000000, 0.000000000000000000, 1.000000000000000000 ) ) ;
#66 = CARTESIAN_POINT ( 'NONE',  ( 0.000000000000000000, 0.000000000000000000, 0.000000000000000000 ) ) ;
#67 = EDGE_CURVE ( 'NONE', #26, #244, #72, .T. ) ;
#68 = VERTEX_POINT ( 'NONE', #229 ) ;
#69 = APPROVAL ( #209, 'NEURÈENÝ' ) ;
#70 = DIRECTION ( 'NONE',  ( 0.000000000000000000, 0.000000000000000000, 1.000000000000000000 ) ) ;
#71 = PERSON_AND_ORGANIZATION ( #160, #213 ) ;
#72 = LINE ( 'NONE', #127, #174 ) ;
#73 = APPROVAL_ROLE ( '' ) ;
#74 = APPROVAL_DATE_TIME ( #234, #204 ) ;
#75 = AXIS2_PLACEMENT_3D ( 'NONE', #226, #34, #173 ) ;
#76 = ADVANCED_FACE ( 'NONE', ( #233, #107 ), #189, .T. ) ;
#77 = ORIENTED_EDGE ( 'NONE', *, *, #19, .F. ) ;
#78 = AXIS2_PLACEMENT_3D ( 'NONE', #105, #187, #28 ) ;
#79 = CARTESIAN_POINT ( 'NONE',  ( 3.000000000000000444, 3.673940397442060361E-16, 3.000000000000000000 ) ) ;
#80 =( LENGTH_UNIT ( ) NAMED_UNIT ( * ) SI_UNIT ( .MILLI., .METRE. ) );
#81 = EDGE_LOOP ( 'NONE', ( #98, #203 ) ) ;
#82 = CC_DESIGN_APPROVAL ( #69, ( #57 ) ) ;
#83 = DIRECTION ( 'NONE',  ( 1.000000000000000000, 0.000000000000000000, -0.000000000000000000 ) ) ;
#84 = EDGE_CURVE ( 'NONE', #44, #216, #163, .T. ) ;
#85 = CC_DESIGN_PERSON_AND_ORGANIZATION_ASSIGNMENT ( #191, #235, ( #236 ) ) ;
#86 = DIRECTION ( 'NONE',  ( -0.000000000000000000, -0.000000000000000000, -1.000000000000000000 ) ) ;
#87 = CALENDAR_DATE ( 2022, 7, 7 ) ;
#88 = DIRECTION ( 'NONE',  ( 0.000000000000000000, 0.000000000000000000, 1.000000000000000000 ) ) ;
#89 = PERSON_AND_ORGANIZATION ( #160, #213 ) ;
#90 = DIRECTION ( 'NONE',  ( 1.000000000000000000, 0.000000000000000000, 0.000000000000000000 ) ) ;
#91 = ADVANCED_FACE ( 'NONE', ( #254 ), #9, .F. ) ;
#92 = APPROVAL_DATE_TIME ( #143, #165 ) ;
#93 = ADVANCED_BREP_SHAPE_REPRESENTATION ( '193b', ( #142, #63 ), #16 ) ;
#94 = CC_DESIGN_PERSON_AND_ORGANIZATION_ASSIGNMENT ( #255, #211, ( #57 ) ) ;
#95 = DIRECTION ( 'NONE',  ( 0.000000000000000000, 0.000000000000000000, 1.000000000000000000 ) ) ;
#96 = DIRECTION ( 'NONE',  ( 1.000000000000000000, 0.000000000000000000, -0.000000000000000000 ) ) ;
#97 = ADVANCED_FACE ( 'NONE', ( #159 ), #249, .T. ) ;
#98 = ORIENTED_EDGE ( 'NONE', *, *, #192, .F. ) ;
#99 = ORIENTED_EDGE ( 'NONE', *, *, #108, .T. ) ;
#100 = VECTOR ( 'NONE', #29, 1000.000000000000000 ) ;
#101 = DIRECTION ( 'NONE',  ( 1.000000000000000000, 0.000000000000000000, 0.000000000000000000 ) ) ;
#102 = LINE ( 'NONE', #184, #39 ) ;
#103 = CC_DESIGN_APPROVAL ( #165, ( #236 ) ) ;
#104 = DATE_TIME_ROLE ( 'creation_date' ) ;
#105 = CARTESIAN_POINT ( 'NONE',  ( 0.000000000000000000, 0.000000000000000000, 3.000000000000000000 ) ) ;
#106 = PERSON_AND_ORGANIZATION ( #160, #213 ) ;
#107 = FACE_OUTER_BOUND ( 'NONE', #114, .T. ) ;
#108 = EDGE_CURVE ( 'NONE', #180, #216, #102, .T. ) ;
#109 = PERSON_AND_ORGANIZATION_ROLE ( 'creator' ) ;
#110 = CIRCLE ( 'NONE', #240, 1.500000000000000222 ) ;
#111 = APPLICATION_CONTEXT ( 'configuration controlled 3d designs of mechanical parts and assemblies' ) ;
#112 = AXIS2_PLACEMENT_3D ( 'NONE', #166, #161, #49 ) ;
#113 = LOCAL_TIME ( 19, 55, 48.00000000000000000, #146 ) ;
#114 = EDGE_LOOP ( 'NONE', ( #119, #40 ) ) ;
#115 = CC_DESIGN_DATE_AND_TIME_ASSIGNMENT ( #206, #104, ( #47 ) ) ;
#116 = ORIENTED_EDGE ( 'NONE', *, *, #126, .T. ) ;
#117 = DIRECTION ( 'NONE',  ( 1.000000000000000000, 0.000000000000000000, 0.000000000000000000 ) ) ;
#118 = CIRCLE ( 'NONE', #78, 3.000000000000000444 ) ;
#119 = ORIENTED_EDGE ( 'NONE', *, *, #246, .T. ) ;
#120 = LOCAL_TIME ( 19, 55, 48.00000000000000000, #14 ) ;
#121 = FACE_OUTER_BOUND ( 'NONE', #156, .T. ) ;
#122 = CYLINDRICAL_SURFACE ( 'NONE', #1, 3.000000000000000444 ) ;
#123 = AXIS2_PLACEMENT_3D ( 'NONE', #27, #223, #43 ) ;
#124 = CARTESIAN_POINT ( 'NONE',  ( 0.000000000000000000, 0.000000000000000000, 403.0000000000000000 ) ) ;
#125 = CALENDAR_DATE ( 2022, 7, 7 ) ;
#126 = EDGE_CURVE ( 'NONE', #244, #6, #60, .T. ) ;
#127 = CARTESIAN_POINT ( 'NONE',  ( 1.500000000000000222, 1.836970198721030181E-16, 403.0000000000000000 ) ) ;
#128 = PERSON_AND_ORGANIZATION_ROLE ( 'design_owner' ) ;
#129 = PERSON_AND_ORGANIZATION ( #160, #213 ) ;
#130 = APPROVAL_STATUS ( 'not_yet_approved' ) ;
#131 = AXIS2_PLACEMENT_3D ( 'NONE', #36, #134, #219 ) ;
#132 = CYLINDRICAL_SURFACE ( 'NONE', #151, 3.000000000000000444 ) ;
#133 = ORIENTED_EDGE ( 'NONE', *, *, #67, .F. ) ;
#134 = DIRECTION ( 'NONE',  ( 0.000000000000000000, 0.000000000000000000, 1.000000000000000000 ) ) ;
#135 = CARTESIAN_POINT ( 'NONE',  ( -3.000000000000000444, 0.000000000000000000, 3.000000000000000000 ) ) ;
#136 = ORIENTED_EDGE ( 'NONE', *, *, #56, .T. ) ;
#137 = DIRECTION ( 'NONE',  ( -0.000000000000000000, -0.000000000000000000, -1.000000000000000000 ) ) ;
#138 = UNCERTAINTY_MEASURE_WITH_UNIT (LENGTH_MEASURE( 1.000000000000000082E-05 ), #80, 'distance_accuracy_value', 'NONE');
#139 = CARTESIAN_POINT ( 'NONE',  ( -1.500000000000000222, 0.000000000000000000, 3.000000000000000000 ) ) ;
#140 = CIRCLE ( 'NONE', #169, 1.500000000000000222 ) ;
#141 = CARTESIAN_POINT ( 'NONE',  ( 0.000000000000000000, 0.000000000000000000, 403.0000000000000000 ) ) ;
#142 = MANIFOLD_SOLID_BREP ( 'Pøidat vysunutím3', #215 ) ;
#143 = DATE_AND_TIME ( #232, #113 ) ;
#144 = EDGE_CURVE ( 'NONE', #6, #244, #110, .T. ) ;
#145 = DIRECTION ( 'NONE',  ( 0.000000000000000000, 0.000000000000000000, 1.000000000000000000 ) ) ;
#146 = COORDINATED_UNIVERSAL_TIME_OFFSET ( 1, 0, .AHEAD. ) ;
#147 = CARTESIAN_POINT ( 'NONE',  ( 3.000000000000000444, 3.673940397442060361E-16, 0.000000000000000000 ) ) ;
#148 = COORDINATED_UNIVERSAL_TIME_OFFSET ( 1, 0, .AHEAD. ) ;
#149 = PERSON_AND_ORGANIZATION_ROLE ( 'design_supplier' ) ;
#150 = AXIS2_PLACEMENT_3D ( 'NONE', #66, #145, #83 ) ;
#151 = AXIS2_PLACEMENT_3D ( 'NONE', #217, #137, #241 ) ;
#152 = EDGE_LOOP ( 'NONE', ( #154, #199, #116, #77 ) ) ;
#153 = ADVANCED_FACE ( 'NONE', ( #247 ), #7, .T. ) ;
#154 = ORIENTED_EDGE ( 'NONE', *, *, #56, .F. ) ;
#155 = ORIENTED_EDGE ( 'NONE', *, *, #55, .F. ) ;
#156 = EDGE_LOOP ( 'NONE', ( #133, #3, #245, #177 ) ) ;
#157 = DIRECTION ( 'NONE',  ( -0.000000000000000000, -0.000000000000000000, -1.000000000000000000 ) ) ;
#158 = DIRECTION ( 'NONE',  ( 0.000000000000000000, 0.000000000000000000, 1.000000000000000000 ) ) ;
#159 = FACE_OUTER_BOUND ( 'NONE', #152, .T. ) ;
#160 = PERSON ( 'NEURÈENÝ', 'NEURÈENÝ', 'NEURÈENÝ', ('NEURÈENÝ'), ('NEURÈENÝ'), ('NEURÈENÝ') ) ;
#161 = DIRECTION ( 'NONE',  ( 0.000000000000000000, 0.000000000000000000, 1.000000000000000000 ) ) ;
#162 = ADVANCED_FACE ( 'NONE', ( #38 ), #132, .T. ) ;
#163 = CIRCLE ( 'NONE', #197, 3.000000000000000444 ) ;
#164 = APPROVAL_ROLE ( '' ) ;
#165 = APPROVAL ( #130, 'NEURÈENÝ' ) ;
#166 = CARTESIAN_POINT ( 'NONE',  ( 0.000000000000000000, 0.000000000000000000, 3.000000000000000000 ) ) ;
#167 = PERSON_AND_ORGANIZATION ( #160, #213 ) ;
#168 = CARTESIAN_POINT ( 'NONE',  ( 0.000000000000000000, 0.000000000000000000, 0.000000000000000000 ) ) ;
#169 = AXIS2_PLACEMENT_3D ( 'NONE', #182, #88, #90 ) ;
#170 = EDGE_CURVE ( 'NONE', #68, #44, #196, .T. ) ;
#171 = ORIENTED_EDGE ( 'NONE', *, *, #246, .F. ) ;
#172 = CC_DESIGN_DATE_AND_TIME_ASSIGNMENT ( #54, #17, ( #236 ) ) ;
#173 = DIRECTION ( 'NONE',  ( 1.000000000000000000, 0.000000000000000000, 0.000000000000000000 ) ) ;
#174 = VECTOR ( 'NONE', #205, 1000.000000000000000 ) ;
#175 = CIRCLE ( 'NONE', #131, 3.000000000000000444 ) ;
#176 = DIRECTION ( 'NONE',  ( 0.000000000000000000, 0.000000000000000000, 1.000000000000000000 ) ) ;
#177 = ORIENTED_EDGE ( 'NONE', *, *, #144, .T. ) ;
#178 = PRODUCT ( '193b', '193b', '', ( #24 ) ) ;
#179 = DIRECTION ( 'NONE',  ( 1.000000000000000000, 0.000000000000000000, 0.000000000000000000 ) ) ;
#180 = VERTEX_POINT ( 'NONE', #135 ) ;
#181 = CARTESIAN_POINT ( 'NONE',  ( 0.000000000000000000, 0.000000000000000000, 403.0000000000000000 ) ) ;
#182 = CARTESIAN_POINT ( 'NONE',  ( 0.000000000000000000, 0.000000000000000000, 403.0000000000000000 ) ) ;
#183 = APPROVAL_PERSON_ORGANIZATION ( #167, #204, #73 ) ;
#184 = CARTESIAN_POINT ( 'NONE',  ( -3.000000000000000444, 0.000000000000000000, 3.000000000000000000 ) ) ;
#185 = AXIS2_PLACEMENT_3D ( 'NONE', #141, #45, #208 ) ;
#186 = APPROVAL_DATE_TIME ( #50, #69 ) ;
#187 = DIRECTION ( 'NONE',  ( 0.000000000000000000, 0.000000000000000000, 1.000000000000000000 ) ) ;
#188 = SECURITY_CLASSIFICATION_LEVEL ( 'unclassified' ) ;
#189 = PLANE ( 'NONE',  #112 ) ;
#190 = APPROVAL_PERSON_ORGANIZATION ( #129, #69, #32 ) ;
#191 = PERSON_AND_ORGANIZATION ( #160, #213 ) ;
#192 = EDGE_CURVE ( 'NONE', #216, #44, #175, .T. ) ;
#193 = ORIENTED_EDGE ( 'NONE', *, *, #144, .F. ) ;
#194 = CARTESIAN_POINT ( 'NONE',  ( 0.000000000000000000, 0.000000000000000000, 0.000000000000000000 ) ) ;
#195 = ORIENTED_EDGE ( 'NONE', *, *, #108, .F. ) ;
#196 = LINE ( 'NONE', #79, #230 ) ;
#197 = AXIS2_PLACEMENT_3D ( 'NONE', #168, #70, #250 ) ;
#198 = LOCAL_TIME ( 19, 55, 48.00000000000000000, #31 ) ;
#199 = ORIENTED_EDGE ( 'NONE', *, *, #67, .T. ) ;
#200 = PRODUCT_DEFINITION_SHAPE ( 'NONE', 'NONE',  #47 ) ;
#201 = ORIENTED_EDGE ( 'NONE', *, *, #11, .T. ) ;
#202 = CYLINDRICAL_SURFACE ( 'NONE', #123, 1.500000000000000222 ) ;
#203 = ORIENTED_EDGE ( 'NONE', *, *, #84, .F. ) ;
#204 = APPROVAL ( #251, 'NEURÈENÝ' ) ;
#205 = DIRECTION ( 'NONE',  ( -0.000000000000000000, -0.000000000000000000, -1.000000000000000000 ) ) ;
#206 = DATE_AND_TIME ( #125, #207 ) ;
#207 = LOCAL_TIME ( 19, 55, 48.00000000000000000, #53 ) ;
#208 = DIRECTION ( 'NONE',  ( -1.000000000000000000, 0.000000000000000000, 0.000000000000000000 ) ) ;
#209 = APPROVAL_STATUS ( 'not_yet_approved' ) ;
#210 = CARTESIAN_POINT ( 'NONE',  ( 1.500000000000000222, 1.836970198721030181E-16, 403.0000000000000000 ) ) ;
#211 = PERSON_AND_ORGANIZATION_ROLE ( 'creator' ) ;
#212 = ADVANCED_FACE ( 'NONE', ( #121 ), #202, .T. ) ;
#213 = ORGANIZATION ( 'NEURÈENÝ', 'NEURÈENÝ', '' ) ;
#214 = CALENDAR_DATE ( 2022, 7, 7 ) ;
#215 = CLOSED_SHELL ( 'NONE', ( #97, #35, #162, #76, #91, #212, #153 ) ) ;
#216 = VERTEX_POINT ( 'NONE', #21 ) ;
#217 = CARTESIAN_POINT ( 'NONE',  ( 0.000000000000000000, 0.000000000000000000, 3.000000000000000000 ) ) ;
#218 = ORIENTED_EDGE ( 'NONE', *, *, #84, .T. ) ;
#219 = DIRECTION ( 'NONE',  ( 1.000000000000000000, 0.000000000000000000, 0.000000000000000000 ) ) ;
#220 = EDGE_LOOP ( 'NONE', ( #201, #136 ) ) ;
#221 =( NAMED_UNIT ( * ) SI_UNIT ( $, .STERADIAN. ) SOLID_ANGLE_UNIT ( ) );
#222 = CC_DESIGN_APPROVAL ( #204, ( #47 ) ) ;
#223 = DIRECTION ( 'NONE',  ( -0.000000000000000000, -0.000000000000000000, -1.000000000000000000 ) ) ;
#224 = EDGE_LOOP ( 'NONE', ( #242, #171, #99, #64 ) ) ;
#225 = CARTESIAN_POINT ( 'NONE',  ( 0.000000000000000000, 0.000000000000000000, 3.000000000000000000 ) ) ;
#226 = CARTESIAN_POINT ( 'NONE',  ( 0.000000000000000000, 0.000000000000000000, 3.000000000000000000 ) ) ;
#227 = CARTESIAN_POINT ( 'NONE',  ( 0.000000000000000000, 0.000000000000000000, 3.000000000000000000 ) ) ;
#228 = APPLICATION_PROTOCOL_DEFINITION ( 'international standard', 'config_control_design', 1994, #111 ) ;
#229 = CARTESIAN_POINT ( 'NONE',  ( 3.000000000000000444, 3.673940397442060361E-16, 3.000000000000000000 ) ) ;
#230 = VECTOR ( 'NONE', #157, 1000.000000000000000 ) ;
#231 = CARTESIAN_POINT ( 'NONE',  ( -1.500000000000000222, 0.000000000000000000, 403.0000000000000000 ) ) ;
#232 = CALENDAR_DATE ( 2022, 7, 7 ) ;
#233 = FACE_BOUND ( 'NONE', #61, .T. ) ;
#234 = DATE_AND_TIME ( #214, #22 ) ;
#235 = PERSON_AND_ORGANIZATION_ROLE ( 'classification_officer' ) ;
#236 = SECURITY_CLASSIFICATION ( '', '', #188 ) ;
#237 = DESIGN_CONTEXT ( 'detailed design', #111, 'design' ) ;
#238 = ORIENTED_EDGE ( 'NONE', *, *, #170, .T. ) ;
#239 = DIRECTION ( 'NONE',  ( 1.000000000000000000, 0.000000000000000000, 0.000000000000000000 ) ) ;
#240 = AXIS2_PLACEMENT_3D ( 'NONE', #41, #95, #117 ) ;
#241 = DIRECTION ( 'NONE',  ( -1.000000000000000000, 0.000000000000000000, 0.000000000000000000 ) ) ;
#242 = ORIENTED_EDGE ( 'NONE', *, *, #170, .F. ) ;
#243 =( NAMED_UNIT ( * ) PLANE_ANGLE_UNIT ( ) SI_UNIT ( $, .RADIAN. ) );
#244 = VERTEX_POINT ( 'NONE', #4 ) ;
#245 = ORIENTED_EDGE ( 'NONE', *, *, #19, .T. ) ;
#246 = EDGE_CURVE ( 'NONE', #180, #68, #46, .T. ) ;
#247 = FACE_OUTER_BOUND ( 'NONE', #220, .T. ) ;
#248 = CARTESIAN_POINT ( 'NONE',  ( -1.500000000000000222, 0.000000000000000000, 403.0000000000000000 ) ) ;
#249 = CYLINDRICAL_SURFACE ( 'NONE', #185, 1.500000000000000222 ) ;
#250 = DIRECTION ( 'NONE',  ( 1.000000000000000000, 0.000000000000000000, 0.000000000000000000 ) ) ;
#251 = APPROVAL_STATUS ( 'not_yet_approved' ) ;
#252 = APPROVAL_PERSON_ORGANIZATION ( #89, #165, #164 ) ;
#253 = CC_DESIGN_PERSON_AND_ORGANIZATION_ASSIGNMENT ( #62, #128, ( #178 ) ) ;
#254 = FACE_OUTER_BOUND ( 'NONE', #81, .T. ) ;
#255 = PERSON_AND_ORGANIZATION ( #160, #213 ) ;
ENDSEC;
END-ISO-10303-21;
