ISO-10303-21;
HEADER;
FILE_DESCRIPTION (( 'STEP AP203' ),
    '1' );
FILE_NAME ('ca4a.STEP',
    '2022-07-07T17:36:51',
    ( '' ),
    ( '' ),
    'SwSTEP 2.0',
    'SolidWorks 2019',
    '' );
FILE_SCHEMA (( 'CONFIG_CONTROL_DESIGN' ));
ENDSEC;

DATA;
#1 = PRODUCT_DEFINITION ( 'NEZNÁMÝ', '', #213, #32 ) ;
#2 = CIRCLE ( 'NONE', #22, 3.250000000000000444 ) ;
#3 = APPROVAL_PERSON_ORGANIZATION ( #225, #165, #228 ) ;
#4 = DIRECTION ( 'NONE',  ( 0.000000000000000000, 0.000000000000000000, 1.000000000000000000 ) ) ;
#5 = CARTESIAN_POINT ( 'NONE',  ( -3.250000000000000444, 0.000000000000000000, 5.000000000000000000 ) ) ;
#6 = VERTEX_POINT ( 'NONE', #51 ) ;
#7 = SECURITY_CLASSIFICATION ( '', '', #36 ) ;
#8 = ORIENTED_EDGE ( 'NONE', *, *, #92, .F. ) ;
#9 = EDGE_CURVE ( 'NONE', #110, #71, #179, .T. ) ;
#10 = VERTEX_POINT ( 'NONE', #52 ) ;
#11 = ORIENTED_EDGE ( 'NONE', *, *, #9, .T. ) ;
#12 = APPROVAL_STATUS ( 'not_yet_approved' ) ;
#13 = CC_DESIGN_APPROVAL ( #16, ( #1 ) ) ;
#14 = PERSON_AND_ORGANIZATION_ROLE ( 'classification_officer' ) ;
#15 = DATE_AND_TIME ( #18, #239 ) ;
#16 = APPROVAL ( #87, 'NEURÈENÝ' ) ;
#17 = VECTOR ( 'NONE', #20, 1000.000000000000000 ) ;
#18 = CALENDAR_DATE ( 2022, 7, 7 ) ;
#19 = CYLINDRICAL_SURFACE ( 'NONE', #109, 3.250000000000000444 ) ;
#20 = DIRECTION ( 'NONE',  ( -0.000000000000000000, -0.000000000000000000, -1.000000000000000000 ) ) ;
#21 = DIRECTION ( 'NONE',  ( -1.000000000000000000, 0.000000000000000000, 0.000000000000000000 ) ) ;
#22 = AXIS2_PLACEMENT_3D ( 'NONE', #150, #199, #222 ) ;
#23 = EDGE_CURVE ( 'NONE', #91, #10, #2, .T. ) ;
#24 = DIRECTION ( 'NONE',  ( -1.000000000000000000, 0.000000000000000000, 0.000000000000000000 ) ) ;
#25 = CC_DESIGN_PERSON_AND_ORGANIZATION_ASSIGNMENT ( #126, #197, ( #169 ) ) ;
#26 = DIRECTION ( 'NONE',  ( 0.000000000000000000, 0.000000000000000000, 1.000000000000000000 ) ) ;
#27 = DIRECTION ( 'NONE',  ( -1.000000000000000000, 0.000000000000000000, 0.000000000000000000 ) ) ;
#28 = PERSON_AND_ORGANIZATION_ROLE ( 'creator' ) ;
#29 = CC_DESIGN_PERSON_AND_ORGANIZATION_ASSIGNMENT ( #139, #28, ( #1 ) ) ;
#30 = EDGE_LOOP ( 'NONE', ( #93, #201, #11, #218 ) ) ;
#31 = CC_DESIGN_SECURITY_CLASSIFICATION ( #7, ( #213 ) ) ;
#32 = DESIGN_CONTEXT ( 'detailed design', #185, 'design' ) ;
#33 = EDGE_LOOP ( 'NONE', ( #68, #183, #131, #73 ) ) ;
#34 = EDGE_LOOP ( 'NONE', ( #8, #184, #163, #108 ) ) ;
#35 = ORIENTED_EDGE ( 'NONE', *, *, #86, .F. ) ;
#36 = SECURITY_CLASSIFICATION_LEVEL ( 'unclassified' ) ;
#37 = PERSON_AND_ORGANIZATION_ROLE ( 'creator' ) ;
#38 = DIRECTION ( 'NONE',  ( -1.000000000000000000, 0.000000000000000000, 0.000000000000000000 ) ) ;
#39 = CIRCLE ( 'NONE', #70, 6.000000000000000888 ) ;
#40 = DATE_AND_TIME ( #153, #148 ) ;
#41 =( GEOMETRIC_REPRESENTATION_CONTEXT ( 3 ) GLOBAL_UNCERTAINTY_ASSIGNED_CONTEXT ( ( #205 ) ) GLOBAL_UNIT_ASSIGNED_CONTEXT ( ( #127, #83, #255 ) ) REPRESENTATION_CONTEXT ( 'NONE', 'WORKASPACE' ) );
#42 = LINE ( 'NONE', #78, #147 ) ;
#43 = EDGE_CURVE ( 'NONE', #219, #242, #203, .T. ) ;
#44 = FACE_OUTER_BOUND ( 'NONE', #133, .T. ) ;
#45 = DIRECTION ( 'NONE',  ( 1.000000000000000000, 0.000000000000000000, 0.000000000000000000 ) ) ;
#46 = DIRECTION ( 'NONE',  ( 1.000000000000000000, 0.000000000000000000, 0.000000000000000000 ) ) ;
#47 = DATE_AND_TIME ( #214, #246 ) ;
#48 = APPROVAL_ROLE ( '' ) ;
#49 = PRODUCT_DEFINITION_SHAPE ( 'NONE', 'NONE',  #1 ) ;
#50 = EDGE_CURVE ( 'NONE', #91, #219, #227, .T. ) ;
#51 = CARTESIAN_POINT ( 'NONE',  ( -6.000000000000000888, 0.000000000000000000, 5.000000000000000000 ) ) ;
#52 = CARTESIAN_POINT ( 'NONE',  ( -3.250000000000000444, 0.000000000000000000, 505.0000000000000000 ) ) ;
#53 = CARTESIAN_POINT ( 'NONE',  ( 0.000000000000000000, 0.000000000000000000, 5.000000000000000000 ) ) ;
#54 = COORDINATED_UNIVERSAL_TIME_OFFSET ( 1, 0, .AHEAD. ) ;
#55 = APPROVAL_PERSON_ORGANIZATION ( #123, #160, #151 ) ;
#56 = APPROVAL_DATE_TIME ( #15, #165 ) ;
#57 = DIRECTION ( 'NONE',  ( 1.000000000000000000, 0.000000000000000000, 0.000000000000000000 ) ) ;
#58 = FACE_BOUND ( 'NONE', #198, .T. ) ;
#59 = CARTESIAN_POINT ( 'NONE',  ( 0.000000000000000000, 0.000000000000000000, 5.000000000000000000 ) ) ;
#60 = CARTESIAN_POINT ( 'NONE',  ( 0.000000000000000000, 0.000000000000000000, 505.0000000000000000 ) ) ;
#61 = CIRCLE ( 'NONE', #96, 6.000000000000000888 ) ;
#62 = DIRECTION ( 'NONE',  ( 1.000000000000000000, 0.000000000000000000, 0.000000000000000000 ) ) ;
#63 = MANIFOLD_SOLID_BREP ( 'Pøidat vysunutím3', #186 ) ;
#64 = LOCAL_TIME ( 19, 36, 51.00000000000000000, #67 ) ;
#65 = MECHANICAL_CONTEXT ( 'NONE', #244, 'mechanical' ) ;
#66 = PERSON ( 'NEURÈENÝ', 'NEURÈENÝ', 'NEURÈENÝ', ('NEURÈENÝ'), ('NEURÈENÝ'), ('NEURÈENÝ') ) ;
#67 = COORDINATED_UNIVERSAL_TIME_OFFSET ( 1, 0, .AHEAD. ) ;
#68 = ORIENTED_EDGE ( 'NONE', *, *, #23, .F. ) ;
#69 = EDGE_LOOP ( 'NONE', ( #111, #243 ) ) ;
#70 = AXIS2_PLACEMENT_3D ( 'NONE', #99, #81, #45 ) ;
#71 = VERTEX_POINT ( 'NONE', #98 ) ;
#72 = APPROVAL_PERSON_ORGANIZATION ( #142, #16, #48 ) ;
#73 = ORIENTED_EDGE ( 'NONE', *, *, #224, .F. ) ;
#74 = VECTOR ( 'NONE', #251, 1000.000000000000000 ) ;
#75 = EDGE_CURVE ( 'NONE', #71, #110, #61, .T. ) ;
#76 = DIRECTION ( 'NONE',  ( 0.000000000000000000, 0.000000000000000000, 1.000000000000000000 ) ) ;
#77 = APPROVAL_STATUS ( 'not_yet_approved' ) ;
#78 = CARTESIAN_POINT ( 'NONE',  ( -6.000000000000000888, 0.000000000000000000, 5.000000000000000000 ) ) ;
#79 = CARTESIAN_POINT ( 'NONE',  ( 0.000000000000000000, 0.000000000000000000, 5.000000000000000000 ) ) ;
#80 = VECTOR ( 'NONE', #106, 1000.000000000000000 ) ;
#81 = DIRECTION ( 'NONE',  ( 0.000000000000000000, 0.000000000000000000, 1.000000000000000000 ) ) ;
#82 = PLANE ( 'NONE',  #125 ) ;
#83 =( NAMED_UNIT ( * ) PLANE_ANGLE_UNIT ( ) SI_UNIT ( $, .RADIAN. ) );
#84 = AXIS2_PLACEMENT_3D ( 'NONE', #59, #137, #24 ) ;
#85 = CALENDAR_DATE ( 2022, 7, 7 ) ;
#86 = EDGE_CURVE ( 'NONE', #10, #91, #234, .T. ) ;
#87 = APPROVAL_STATUS ( 'not_yet_approved' ) ;
#88 = CIRCLE ( 'NONE', #253, 6.000000000000000888 ) ;
#89 = EDGE_LOOP ( 'NONE', ( #146, #35, #134, #112 ) ) ;
#90 = CC_DESIGN_DATE_AND_TIME_ASSIGNMENT ( #47, #121, ( #1 ) ) ;
#91 = VERTEX_POINT ( 'NONE', #135 ) ;
#92 = EDGE_CURVE ( 'NONE', #241, #110, #210, .T. ) ;
#93 = ORIENTED_EDGE ( 'NONE', *, *, #200, .F. ) ;
#94 = CC_DESIGN_APPROVAL ( #165, ( #7 ) ) ;
#95 = PERSON_AND_ORGANIZATION ( #66, #105 ) ;
#96 = AXIS2_PLACEMENT_3D ( 'NONE', #120, #154, #188 ) ;
#97 = CARTESIAN_POINT ( 'NONE',  ( 3.250000000000000444, 3.980102097228898231E-16, 505.0000000000000000 ) ) ;
#98 = CARTESIAN_POINT ( 'NONE',  ( -6.000000000000000888, 0.000000000000000000, 0.000000000000000000 ) ) ;
#99 = CARTESIAN_POINT ( 'NONE',  ( 0.000000000000000000, 0.000000000000000000, 5.000000000000000000 ) ) ;
#100 = EDGE_CURVE ( 'NONE', #6, #71, #42, .T. ) ;
#101 = DIRECTION ( 'NONE',  ( 1.000000000000000000, 0.000000000000000000, -0.000000000000000000 ) ) ;
#102 = DIRECTION ( 'NONE',  ( 1.000000000000000000, 0.000000000000000000, -0.000000000000000000 ) ) ;
#103 = CARTESIAN_POINT ( 'NONE',  ( 0.000000000000000000, 0.000000000000000000, 0.000000000000000000 ) ) ;
#104 = EDGE_CURVE ( 'NONE', #6, #241, #39, .T. ) ;
#105 = ORGANIZATION ( 'NEURÈENÝ', 'NEURÈENÝ', '' ) ;
#106 = DIRECTION ( 'NONE',  ( -0.000000000000000000, -0.000000000000000000, -1.000000000000000000 ) ) ;
#107 = CARTESIAN_POINT ( 'NONE',  ( 0.000000000000000000, 0.000000000000000000, 505.0000000000000000 ) ) ;
#108 = ORIENTED_EDGE ( 'NONE', *, *, #75, .T. ) ;
#109 = AXIS2_PLACEMENT_3D ( 'NONE', #249, #254, #21 ) ;
#110 = VERTEX_POINT ( 'NONE', #156 ) ;
#111 = ORIENTED_EDGE ( 'NONE', *, *, #75, .F. ) ;
#112 = ORIENTED_EDGE ( 'NONE', *, *, #193, .T. ) ;
#113 = AXIS2_PLACEMENT_3D ( 'NONE', #212, #76, #46 ) ;
#114 = CALENDAR_DATE ( 2022, 7, 7 ) ;
#115 = DIRECTION ( 'NONE',  ( 1.000000000000000000, 0.000000000000000000, -0.000000000000000000 ) ) ;
#116 = AXIS2_PLACEMENT_3D ( 'NONE', #107, #215, #27 ) ;
#117 = FACE_OUTER_BOUND ( 'NONE', #33, .T. ) ;
#118 = PLANE ( 'NONE',  #158 ) ;
#119 = ADVANCED_FACE ( 'NONE', ( #172 ), #173, .T. ) ;
#120 = CARTESIAN_POINT ( 'NONE',  ( 0.000000000000000000, 0.000000000000000000, 0.000000000000000000 ) ) ;
#121 = DATE_TIME_ROLE ( 'creation_date' ) ;
#122 = ADVANCED_FACE ( 'NONE', ( #117 ), #19, .T. ) ;
#123 = PERSON_AND_ORGANIZATION ( #66, #105 ) ;
#124 = CARTESIAN_POINT ( 'NONE',  ( 6.000000000000000888, 7.347880794884120722E-16, 5.000000000000000000 ) ) ;
#125 = AXIS2_PLACEMENT_3D ( 'NONE', #157, #231, #115 ) ;
#126 = PERSON_AND_ORGANIZATION ( #66, #105 ) ;
#127 =( LENGTH_UNIT ( ) NAMED_UNIT ( * ) SI_UNIT ( .MILLI., .METRE. ) );
#128 = ORIENTED_EDGE ( 'NONE', *, *, #200, .T. ) ;
#129 = DIRECTION ( 'NONE',  ( 0.000000000000000000, 0.000000000000000000, 1.000000000000000000 ) ) ;
#130 = AXIS2_PLACEMENT_3D ( 'NONE', #60, #208, #187 ) ;
#131 = ORIENTED_EDGE ( 'NONE', *, *, #43, .T. ) ;
#132 = ADVANCED_FACE ( 'NONE', ( #191 ), #82, .T. ) ;
#133 = EDGE_LOOP ( 'NONE', ( #168, #128 ) ) ;
#134 = ORIENTED_EDGE ( 'NONE', *, *, #224, .T. ) ;
#135 = CARTESIAN_POINT ( 'NONE',  ( 3.250000000000000444, 3.980102097228898231E-16, 505.0000000000000000 ) ) ;
#136 = DIRECTION ( 'NONE',  ( 0.000000000000000000, 0.000000000000000000, 1.000000000000000000 ) ) ;
#137 = DIRECTION ( 'NONE',  ( -0.000000000000000000, -0.000000000000000000, -1.000000000000000000 ) ) ;
#138 = CARTESIAN_POINT ( 'NONE',  ( 0.000000000000000000, 0.000000000000000000, 0.000000000000000000 ) ) ;
#139 = PERSON_AND_ORGANIZATION ( #66, #105 ) ;
#140 = LOCAL_TIME ( 19, 36, 51.00000000000000000, #155 ) ;
#141 = CC_DESIGN_PERSON_AND_ORGANIZATION_ASSIGNMENT ( #202, #14, ( #7 ) ) ;
#142 = PERSON_AND_ORGANIZATION ( #66, #105 ) ;
#143 = COORDINATED_UNIVERSAL_TIME_OFFSET ( 1, 0, .AHEAD. ) ;
#144 = ORIENTED_EDGE ( 'NONE', *, *, #86, .T. ) ;
#145 = ADVANCED_FACE ( 'NONE', ( #229 ), #170, .T. ) ;
#146 = ORIENTED_EDGE ( 'NONE', *, *, #50, .F. ) ;
#147 = VECTOR ( 'NONE', #176, 1000.000000000000000 ) ;
#148 = LOCAL_TIME ( 19, 36, 51.00000000000000000, #209 ) ;
#149 = CARTESIAN_POINT ( 'NONE',  ( 0.000000000000000000, 0.000000000000000000, 0.000000000000000000 ) ) ;
#150 = CARTESIAN_POINT ( 'NONE',  ( 0.000000000000000000, 0.000000000000000000, 505.0000000000000000 ) ) ;
#151 = APPROVAL_ROLE ( '' ) ;
#152 = DATE_AND_TIME ( #114, #140 ) ;
#153 = CALENDAR_DATE ( 2022, 7, 7 ) ;
#154 = DIRECTION ( 'NONE',  ( 0.000000000000000000, 0.000000000000000000, 1.000000000000000000 ) ) ;
#155 = COORDINATED_UNIVERSAL_TIME_OFFSET ( 1, 0, .AHEAD. ) ;
#156 = CARTESIAN_POINT ( 'NONE',  ( 6.000000000000000888, 7.347880794884120722E-16, 0.000000000000000000 ) ) ;
#157 = CARTESIAN_POINT ( 'NONE',  ( 0.000000000000000000, 0.000000000000000000, 505.0000000000000000 ) ) ;
#158 = AXIS2_PLACEMENT_3D ( 'NONE', #211, #189, #101 ) ;
#159 = PLANE ( 'NONE',  #217 ) ;
#160 = APPROVAL ( #12, 'NEURÈENÝ' ) ;
#161 = DATE_AND_TIME ( #85, #64 ) ;
#162 = CARTESIAN_POINT ( 'NONE',  ( -3.250000000000000444, 0.000000000000000000, 505.0000000000000000 ) ) ;
#163 = ORIENTED_EDGE ( 'NONE', *, *, #100, .T. ) ;
#164 = ORIENTED_EDGE ( 'NONE', *, *, #43, .F. ) ;
#165 = APPROVAL ( #77, 'NEURÈENÝ' ) ;
#166 = EDGE_LOOP ( 'NONE', ( #144, #240 ) ) ;
#167 = ADVANCED_BREP_SHAPE_REPRESENTATION ( 'ca4a', ( #63, #220 ), #41 ) ;
#168 = ORIENTED_EDGE ( 'NONE', *, *, #104, .T. ) ;
#169 = PRODUCT ( 'ca4a', 'ca4a', '', ( #65 ) ) ;
#170 = CYLINDRICAL_SURFACE ( 'NONE', #84, 6.000000000000000888 ) ;
#171 = ADVANCED_FACE ( 'NONE', ( #58, #44 ), #118, .T. ) ;
#172 = FACE_OUTER_BOUND ( 'NONE', #30, .T. ) ;
#173 = CYLINDRICAL_SURFACE ( 'NONE', #230, 6.000000000000000888 ) ;
#174 = AXIS2_PLACEMENT_3D ( 'NONE', #149, #129, #221 ) ;
#175 = DIRECTION ( 'NONE',  ( -0.000000000000000000, -0.000000000000000000, -1.000000000000000000 ) ) ;
#176 = DIRECTION ( 'NONE',  ( -0.000000000000000000, -0.000000000000000000, -1.000000000000000000 ) ) ;
#177 = FACE_OUTER_BOUND ( 'NONE', #89, .T. ) ;
#178 = CARTESIAN_POINT ( 'NONE',  ( 0.000000000000000000, 0.000000000000000000, 5.000000000000000000 ) ) ;
#179 = CIRCLE ( 'NONE', #174, 6.000000000000000888 ) ;
#180 = ORIENTED_EDGE ( 'NONE', *, *, #193, .F. ) ;
#181 = CC_DESIGN_APPROVAL ( #160, ( #213 ) ) ;
#182 = CC_DESIGN_PERSON_AND_ORGANIZATION_ASSIGNMENT ( #245, #250, ( #213 ) ) ;
#183 = ORIENTED_EDGE ( 'NONE', *, *, #50, .T. ) ;
#184 = ORIENTED_EDGE ( 'NONE', *, *, #104, .F. ) ;
#185 = APPLICATION_CONTEXT ( 'configuration controlled 3d designs of mechanical parts and assemblies' ) ;
#186 = CLOSED_SHELL ( 'NONE', ( #122, #119, #145, #171, #190, #204, #132 ) ) ;
#187 = DIRECTION ( 'NONE',  ( 1.000000000000000000, 0.000000000000000000, 0.000000000000000000 ) ) ;
#188 = DIRECTION ( 'NONE',  ( 1.000000000000000000, 0.000000000000000000, 0.000000000000000000 ) ) ;
#189 = DIRECTION ( 'NONE',  ( 0.000000000000000000, 0.000000000000000000, 1.000000000000000000 ) ) ;
#190 = ADVANCED_FACE ( 'NONE', ( #252 ), #159, .F. ) ;
#191 = FACE_OUTER_BOUND ( 'NONE', #166, .T. ) ;
#192 = CYLINDRICAL_SURFACE ( 'NONE', #116, 3.250000000000000444 ) ;
#193 = EDGE_CURVE ( 'NONE', #242, #219, #196, .T. ) ;
#194 = APPLICATION_PROTOCOL_DEFINITION ( 'international standard', 'config_control_design', 1994, #244 ) ;
#195 = LINE ( 'NONE', #162, #80 ) ;
#196 = CIRCLE ( 'NONE', #113, 3.250000000000000444 ) ;
#197 = PERSON_AND_ORGANIZATION_ROLE ( 'design_owner' ) ;
#198 = EDGE_LOOP ( 'NONE', ( #180, #164 ) ) ;
#199 = DIRECTION ( 'NONE',  ( 0.000000000000000000, 0.000000000000000000, 1.000000000000000000 ) ) ;
#200 = EDGE_CURVE ( 'NONE', #241, #6, #88, .T. ) ;
#201 = ORIENTED_EDGE ( 'NONE', *, *, #92, .T. ) ;
#202 = PERSON_AND_ORGANIZATION ( #66, #105 ) ;
#203 = CIRCLE ( 'NONE', #238, 3.250000000000000444 ) ;
#204 = ADVANCED_FACE ( 'NONE', ( #177 ), #192, .T. ) ;
#205 = UNCERTAINTY_MEASURE_WITH_UNIT (LENGTH_MEASURE( 1.000000000000000082E-05 ), #127, 'distance_accuracy_value', 'NONE');
#206 = APPROVAL_DATE_TIME ( #40, #160 ) ;
#207 = CC_DESIGN_DATE_AND_TIME_ASSIGNMENT ( #152, #248, ( #7 ) ) ;
#208 = DIRECTION ( 'NONE',  ( 0.000000000000000000, 0.000000000000000000, 1.000000000000000000 ) ) ;
#209 = COORDINATED_UNIVERSAL_TIME_OFFSET ( 1, 0, .AHEAD. ) ;
#210 = LINE ( 'NONE', #232, #17 ) ;
#211 = CARTESIAN_POINT ( 'NONE',  ( 0.000000000000000000, 0.000000000000000000, 5.000000000000000000 ) ) ;
#212 = CARTESIAN_POINT ( 'NONE',  ( 0.000000000000000000, 0.000000000000000000, 5.000000000000000000 ) ) ;
#213 = PRODUCT_DEFINITION_FORMATION_WITH_SPECIFIED_SOURCE ( 'LIBOVOLNÝ', '', #169, .NOT_KNOWN. ) ;
#214 = CALENDAR_DATE ( 2022, 7, 7 ) ;
#215 = DIRECTION ( 'NONE',  ( -0.000000000000000000, -0.000000000000000000, -1.000000000000000000 ) ) ;
#216 = DIRECTION ( 'NONE',  ( 1.000000000000000000, 0.000000000000000000, 0.000000000000000000 ) ) ;
#217 = AXIS2_PLACEMENT_3D ( 'NONE', #138, #247, #102 ) ;
#218 = ORIENTED_EDGE ( 'NONE', *, *, #100, .F. ) ;
#219 = VERTEX_POINT ( 'NONE', #233 ) ;
#220 = AXIS2_PLACEMENT_3D ( 'NONE', #103, #26, #216 ) ;
#221 = DIRECTION ( 'NONE',  ( 1.000000000000000000, 0.000000000000000000, 0.000000000000000000 ) ) ;
#222 = DIRECTION ( 'NONE',  ( 1.000000000000000000, 0.000000000000000000, 0.000000000000000000 ) ) ;
#223 = SHAPE_DEFINITION_REPRESENTATION ( #49, #167 ) ;
#224 = EDGE_CURVE ( 'NONE', #10, #242, #195, .T. ) ;
#225 = PERSON_AND_ORGANIZATION ( #66, #105 ) ;
#226 = CC_DESIGN_PERSON_AND_ORGANIZATION_ASSIGNMENT ( #95, #37, ( #213 ) ) ;
#227 = LINE ( 'NONE', #97, #74 ) ;
#228 = APPROVAL_ROLE ( '' ) ;
#229 = FACE_OUTER_BOUND ( 'NONE', #34, .T. ) ;
#230 = AXIS2_PLACEMENT_3D ( 'NONE', #79, #175, #38 ) ;
#231 = DIRECTION ( 'NONE',  ( 0.000000000000000000, 0.000000000000000000, 1.000000000000000000 ) ) ;
#232 = CARTESIAN_POINT ( 'NONE',  ( 6.000000000000000888, 7.347880794884120722E-16, 5.000000000000000000 ) ) ;
#233 = CARTESIAN_POINT ( 'NONE',  ( 3.250000000000000444, 3.980102097228898231E-16, 5.000000000000000000 ) ) ;
#234 = CIRCLE ( 'NONE', #130, 3.250000000000000444 ) ;
#235 = APPROVAL_DATE_TIME ( #161, #16 ) ;
#236 = PRODUCT_RELATED_PRODUCT_CATEGORY ( 'detail', '', ( #169 ) ) ;
#237 = APPLICATION_PROTOCOL_DEFINITION ( 'international standard', 'config_control_design', 1994, #185 ) ;
#238 = AXIS2_PLACEMENT_3D ( 'NONE', #53, #136, #57 ) ;
#239 = LOCAL_TIME ( 19, 36, 51.00000000000000000, #54 ) ;
#240 = ORIENTED_EDGE ( 'NONE', *, *, #23, .T. ) ;
#241 = VERTEX_POINT ( 'NONE', #124 ) ;
#242 = VERTEX_POINT ( 'NONE', #5 ) ;
#243 = ORIENTED_EDGE ( 'NONE', *, *, #9, .F. ) ;
#244 = APPLICATION_CONTEXT ( 'configuration controlled 3d designs of mechanical parts and assemblies' ) ;
#245 = PERSON_AND_ORGANIZATION ( #66, #105 ) ;
#246 = LOCAL_TIME ( 19, 36, 51.00000000000000000, #143 ) ;
#247 = DIRECTION ( 'NONE',  ( 0.000000000000000000, 0.000000000000000000, 1.000000000000000000 ) ) ;
#248 = DATE_TIME_ROLE ( 'classification_date' ) ;
#249 = CARTESIAN_POINT ( 'NONE',  ( 0.000000000000000000, 0.000000000000000000, 505.0000000000000000 ) ) ;
#250 = PERSON_AND_ORGANIZATION_ROLE ( 'design_supplier' ) ;
#251 = DIRECTION ( 'NONE',  ( -0.000000000000000000, -0.000000000000000000, -1.000000000000000000 ) ) ;
#252 = FACE_OUTER_BOUND ( 'NONE', #69, .T. ) ;
#253 = AXIS2_PLACEMENT_3D ( 'NONE', #178, #4, #62 ) ;
#254 = DIRECTION ( 'NONE',  ( -0.000000000000000000, -0.000000000000000000, -1.000000000000000000 ) ) ;
#255 =( NAMED_UNIT ( * ) SI_UNIT ( $, .STERADIAN. ) SOLID_ANGLE_UNIT ( ) );
ENDSEC;
END-ISO-10303-21;
