ISO-10303-21;
HEADER;
FILE_DESCRIPTION (( 'STEP AP203' ),
    '1' );
FILE_NAME ('e6d7.STEP',
    '2022-07-07T17:12:07',
    ( '' ),
    ( '' ),
    'SwSTEP 2.0',
    'SolidWorks 2019',
    '' );
FILE_SCHEMA (( 'CONFIG_CONTROL_DESIGN' ));
ENDSEC;

DATA;
#1 = ADVANCED_FACE ( 'NONE', ( #25 ), #185, .T. ) ;
#2 = CC_DESIGN_PERSON_AND_ORGANIZATION_ASSIGNMENT ( #216, #175, ( #181 ) ) ;
#3 = PRODUCT_DEFINITION_FORMATION_WITH_SPECIFIED_SOURCE ( 'LIBOVOLNÝ', '', #181, .NOT_KNOWN. ) ;
#4 = CALENDAR_DATE ( 2022, 7, 7 ) ;
#5 = AXIS2_PLACEMENT_3D ( 'NONE', #120, #78, #213 ) ;
#6 = LOCAL_TIME ( 19, 12, 7.000000000000000000, #199 ) ;
#7 = APPROVAL_STATUS ( 'not_yet_approved' ) ;
#8 = PERSON_AND_ORGANIZATION ( #162, #150 ) ;
#9 = CARTESIAN_POINT ( 'NONE',  ( -7.250000000000000000, 0.000000000000000000, 322.0000000000000000 ) ) ;
#10 = ORIENTED_EDGE ( 'NONE', *, *, #102, .F. ) ;
#11 = DIRECTION ( 'NONE',  ( -0.000000000000000000, -0.000000000000000000, -1.000000000000000000 ) ) ;
#12 = VERTEX_POINT ( 'NONE', #98 ) ;
#13 = LINE ( 'NONE', #73, #158 ) ;
#14 = DIRECTION ( 'NONE',  ( 1.000000000000000000, 0.000000000000000000, -0.000000000000000000 ) ) ;
#15 = DIRECTION ( 'NONE',  ( 0.000000000000000000, 0.000000000000000000, 1.000000000000000000 ) ) ;
#16 = DIRECTION ( 'NONE',  ( 0.000000000000000000, 0.000000000000000000, 1.000000000000000000 ) ) ;
#17 = DIRECTION ( 'NONE',  ( 1.000000000000000000, 0.000000000000000000, 0.000000000000000000 ) ) ;
#18 = EDGE_CURVE ( 'NONE', #165, #246, #66, .T. ) ;
#19 = ADVANCED_FACE ( 'NONE', ( #97 ), #230, .T. ) ;
#20 = CALENDAR_DATE ( 2022, 7, 7 ) ;
#21 = SECURITY_CLASSIFICATION_LEVEL ( 'unclassified' ) ;
#22 = APPROVAL_DATE_TIME ( #203, #160 ) ;
#23 = APPROVAL_STATUS ( 'not_yet_approved' ) ;
#24 = EDGE_CURVE ( 'NONE', #246, #190, #217, .T. ) ;
#25 = FACE_OUTER_BOUND ( 'NONE', #111, .T. ) ;
#26 = EDGE_CURVE ( 'NONE', #227, #190, #206, .T. ) ;
#27 = DATE_AND_TIME ( #126, #68 ) ;
#28 = FACE_OUTER_BOUND ( 'NONE', #69, .T. ) ;
#29 = UNCERTAINTY_MEASURE_WITH_UNIT (LENGTH_MEASURE( 1.000000000000000082E-05 ), #79, 'distance_accuracy_value', 'NONE');
#30 = AXIS2_PLACEMENT_3D ( 'NONE', #119, #76, #92 ) ;
#31 = AXIS2_PLACEMENT_3D ( 'NONE', #228, #54, #210 ) ;
#32 = CC_DESIGN_APPROVAL ( #236, ( #144 ) ) ;
#33 = ORIENTED_EDGE ( 'NONE', *, *, #212, .F. ) ;
#34 = DIRECTION ( 'NONE',  ( -1.000000000000000000, 0.000000000000000000, 0.000000000000000000 ) ) ;
#35 = EDGE_LOOP ( 'NONE', ( #204, #53, #91, #50 ) ) ;
#36 = PLANE ( 'NONE',  #153 ) ;
#37 = PLANE ( 'NONE',  #250 ) ;
#38 = VECTOR ( 'NONE', #11, 1000.000000000000000 ) ;
#39 = CARTESIAN_POINT ( 'NONE',  ( 11.00000000000000000, 1.347111479062088405E-15, 7.000000000000000000 ) ) ;
#40 = DIRECTION ( 'NONE',  ( 0.000000000000000000, 0.000000000000000000, 1.000000000000000000 ) ) ;
#41 = CIRCLE ( 'NONE', #110, 7.250000000000000000 ) ;
#42 = APPROVAL_DATE_TIME ( #138, #236 ) ;
#43 = DIRECTION ( 'NONE',  ( -0.000000000000000000, -0.000000000000000000, -1.000000000000000000 ) ) ;
#44 =( NAMED_UNIT ( * ) PLANE_ANGLE_UNIT ( ) SI_UNIT ( $, .RADIAN. ) );
#45 = PERSON_AND_ORGANIZATION_ROLE ( 'design_supplier' ) ;
#46 = PERSON_AND_ORGANIZATION ( #162, #150 ) ;
#47 = AXIS2_PLACEMENT_3D ( 'NONE', #191, #15, #154 ) ;
#48 = EDGE_CURVE ( 'NONE', #227, #165, #172, .T. ) ;
#49 = CC_DESIGN_PERSON_AND_ORGANIZATION_ASSIGNMENT ( #46, #45, ( #3 ) ) ;
#50 = ORIENTED_EDGE ( 'NONE', *, *, #24, .T. ) ;
#51 = FACE_OUTER_BOUND ( 'NONE', #147, .T. ) ;
#52 = DIRECTION ( 'NONE',  ( 0.000000000000000000, 0.000000000000000000, 1.000000000000000000 ) ) ;
#53 = ORIENTED_EDGE ( 'NONE', *, *, #64, .F. ) ;
#54 = DIRECTION ( 'NONE',  ( 0.000000000000000000, 0.000000000000000000, 1.000000000000000000 ) ) ;
#55 = CARTESIAN_POINT ( 'NONE',  ( 0.000000000000000000, 0.000000000000000000, 322.0000000000000000 ) ) ;
#56 = DIRECTION ( 'NONE',  ( 0.000000000000000000, 0.000000000000000000, 1.000000000000000000 ) ) ;
#57 = CC_DESIGN_PERSON_AND_ORGANIZATION_ASSIGNMENT ( #238, #86, ( #218 ) ) ;
#58 = CYLINDRICAL_SURFACE ( 'NONE', #173, 7.250000000000000000 ) ;
#59 = CALENDAR_DATE ( 2022, 7, 7 ) ;
#60 = CARTESIAN_POINT ( 'NONE',  ( 7.250000000000000000, 8.878689293818310074E-16, 322.0000000000000000 ) ) ;
#61 = CYLINDRICAL_SURFACE ( 'NONE', #137, 11.00000000000000000 ) ;
#62 = AXIS2_PLACEMENT_3D ( 'NONE', #146, #56, #135 ) ;
#63 = COORDINATED_UNIVERSAL_TIME_OFFSET ( 1, 0, .AHEAD. ) ;
#64 = EDGE_CURVE ( 'NONE', #165, #227, #85, .T. ) ;
#65 = PERSON_AND_ORGANIZATION_ROLE ( 'creator' ) ;
#66 = LINE ( 'NONE', #9, #214 ) ;
#67 = CIRCLE ( 'NONE', #240, 11.00000000000000000 ) ;
#68 = LOCAL_TIME ( 19, 12, 7.000000000000000000, #63 ) ;
#69 = EDGE_LOOP ( 'NONE', ( #143, #71 ) ) ;
#70 = DIRECTION ( 'NONE',  ( -1.000000000000000000, 0.000000000000000000, 0.000000000000000000 ) ) ;
#71 = ORIENTED_EDGE ( 'NONE', *, *, #212, .T. ) ;
#72 = DIRECTION ( 'NONE',  ( 1.000000000000000000, 0.000000000000000000, 0.000000000000000000 ) ) ;
#73 = CARTESIAN_POINT ( 'NONE',  ( 11.00000000000000000, 1.347111479062088405E-15, 7.000000000000000000 ) ) ;
#74 = VERTEX_POINT ( 'NONE', #164 ) ;
#75 = DIRECTION ( 'NONE',  ( -0.000000000000000000, -0.000000000000000000, -1.000000000000000000 ) ) ;
#76 = DIRECTION ( 'NONE',  ( 0.000000000000000000, 0.000000000000000000, 1.000000000000000000 ) ) ;
#77 = ADVANCED_FACE ( 'NONE', ( #171, #28 ), #37, .T. ) ;
#78 = DIRECTION ( 'NONE',  ( 0.000000000000000000, 0.000000000000000000, 1.000000000000000000 ) ) ;
#79 =( LENGTH_UNIT ( ) NAMED_UNIT ( * ) SI_UNIT ( .MILLI., .METRE. ) );
#80 = DESIGN_CONTEXT ( 'detailed design', #248, 'design' ) ;
#81 = FACE_OUTER_BOUND ( 'NONE', #96, .T. ) ;
#82 = LOCAL_TIME ( 19, 12, 7.000000000000000000, #233 ) ;
#83 = DATE_TIME_ROLE ( 'creation_date' ) ;
#84 = COORDINATED_UNIVERSAL_TIME_OFFSET ( 1, 0, .AHEAD. ) ;
#85 = CIRCLE ( 'NONE', #178, 7.250000000000000000 ) ;
#86 = PERSON_AND_ORGANIZATION_ROLE ( 'classification_officer' ) ;
#87 =( GEOMETRIC_REPRESENTATION_CONTEXT ( 3 ) GLOBAL_UNCERTAINTY_ASSIGNED_CONTEXT ( ( #29 ) ) GLOBAL_UNIT_ASSIGNED_CONTEXT ( ( #79, #44, #195 ) ) REPRESENTATION_CONTEXT ( 'NONE', 'WORKASPACE' ) );
#88 = SHAPE_DEFINITION_REPRESENTATION ( #101, #112 ) ;
#89 = PRODUCT_RELATED_PRODUCT_CATEGORY ( 'detail', '', ( #181 ) ) ;
#90 = PERSON_AND_ORGANIZATION ( #162, #150 ) ;
#91 = ORIENTED_EDGE ( 'NONE', *, *, #18, .T. ) ;
#92 = DIRECTION ( 'NONE',  ( 1.000000000000000000, 0.000000000000000000, 0.000000000000000000 ) ) ;
#93 = ORIENTED_EDGE ( 'NONE', *, *, #184, .T. ) ;
#94 = CARTESIAN_POINT ( 'NONE',  ( 0.000000000000000000, 0.000000000000000000, 7.000000000000000000 ) ) ;
#95 = CC_DESIGN_DATE_AND_TIME_ASSIGNMENT ( #239, #182, ( #218 ) ) ;
#96 = EDGE_LOOP ( 'NONE', ( #33, #207, #93, #130 ) ) ;
#97 = FACE_OUTER_BOUND ( 'NONE', #133, .T. ) ;
#98 = CARTESIAN_POINT ( 'NONE',  ( 11.00000000000000000, 1.347111479062088405E-15, 0.000000000000000000 ) ) ;
#99 = FACE_OUTER_BOUND ( 'NONE', #35, .T. ) ;
#100 = CIRCLE ( 'NONE', #47, 11.00000000000000000 ) ;
#101 = PRODUCT_DEFINITION_SHAPE ( 'NONE', 'NONE',  #144 ) ;
#102 = EDGE_CURVE ( 'NONE', #186, #244, #67, .T. ) ;
#103 = DIRECTION ( 'NONE',  ( 1.000000000000000000, 0.000000000000000000, 0.000000000000000000 ) ) ;
#104 = APPROVAL_ROLE ( '' ) ;
#105 = PERSON_AND_ORGANIZATION_ROLE ( 'creator' ) ;
#106 = ADVANCED_FACE ( 'NONE', ( #51 ), #36, .F. ) ;
#107 = APPROVAL_ROLE ( '' ) ;
#108 = AXIS2_PLACEMENT_3D ( 'NONE', #114, #242, #70 ) ;
#109 = APPROVAL_ROLE ( '' ) ;
#110 = AXIS2_PLACEMENT_3D ( 'NONE', #253, #208, #72 ) ;
#111 = EDGE_LOOP ( 'NONE', ( #113, #241 ) ) ;
#112 = ADVANCED_BREP_SHAPE_REPRESENTATION ( 'e6d7', ( #196, #5 ), #87 ) ;
#113 = ORIENTED_EDGE ( 'NONE', *, *, #64, .T. ) ;
#114 = CARTESIAN_POINT ( 'NONE',  ( 0.000000000000000000, 0.000000000000000000, 322.0000000000000000 ) ) ;
#115 = AXIS2_PLACEMENT_3D ( 'NONE', #226, #75, #34 ) ;
#116 = ORIENTED_EDGE ( 'NONE', *, *, #48, .F. ) ;
#117 = LINE ( 'NONE', #189, #192 ) ;
#118 = CARTESIAN_POINT ( 'NONE',  ( 7.250000000000000000, 8.878689293818310074E-16, 7.000000000000000000 ) ) ;
#119 = CARTESIAN_POINT ( 'NONE',  ( 0.000000000000000000, 0.000000000000000000, 7.000000000000000000 ) ) ;
#120 = CARTESIAN_POINT ( 'NONE',  ( 0.000000000000000000, 0.000000000000000000, 0.000000000000000000 ) ) ;
#121 = CC_DESIGN_APPROVAL ( #194, ( #3 ) ) ;
#122 = PERSON_AND_ORGANIZATION ( #162, #150 ) ;
#123 = CC_DESIGN_DATE_AND_TIME_ASSIGNMENT ( #179, #83, ( #144 ) ) ;
#124 = CARTESIAN_POINT ( 'NONE',  ( -7.250000000000000000, 0.000000000000000000, 7.000000000000000000 ) ) ;
#125 = CALENDAR_DATE ( 2022, 7, 7 ) ;
#126 = CALENDAR_DATE ( 2022, 7, 7 ) ;
#127 = EDGE_LOOP ( 'NONE', ( #163, #167 ) ) ;
#128 = ORIENTED_EDGE ( 'NONE', *, *, #26, .T. ) ;
#129 = CARTESIAN_POINT ( 'NONE',  ( 0.000000000000000000, 0.000000000000000000, 0.000000000000000000 ) ) ;
#130 = ORIENTED_EDGE ( 'NONE', *, *, #176, .F. ) ;
#131 = CARTESIAN_POINT ( 'NONE',  ( -7.250000000000000000, 0.000000000000000000, 322.0000000000000000 ) ) ;
#132 = APPROVAL_PERSON_ORGANIZATION ( #155, #236, #104 ) ;
#133 = EDGE_LOOP ( 'NONE', ( #116, #128, #222, #223 ) ) ;
#134 = CARTESIAN_POINT ( 'NONE',  ( -11.00000000000000000, 0.000000000000000000, 7.000000000000000000 ) ) ;
#135 = DIRECTION ( 'NONE',  ( 1.000000000000000000, 0.000000000000000000, 0.000000000000000000 ) ) ;
#136 = CLOSED_SHELL ( 'NONE', ( #19, #243, #161, #77, #106, #219, #1 ) ) ;
#137 = AXIS2_PLACEMENT_3D ( 'NONE', #141, #43, #174 ) ;
#138 = DATE_AND_TIME ( #59, #82 ) ;
#139 = CC_DESIGN_APPROVAL ( #160, ( #218 ) ) ;
#140 = CC_DESIGN_PERSON_AND_ORGANIZATION_ASSIGNMENT ( #90, #65, ( #3 ) ) ;
#141 = CARTESIAN_POINT ( 'NONE',  ( 0.000000000000000000, 0.000000000000000000, 7.000000000000000000 ) ) ;
#142 = CIRCLE ( 'NONE', #31, 11.00000000000000000 ) ;
#143 = ORIENTED_EDGE ( 'NONE', *, *, #102, .T. ) ;
#144 = PRODUCT_DEFINITION ( 'NEZNÁMÝ', '', #3, #80 ) ;
#145 = DIRECTION ( 'NONE',  ( -0.000000000000000000, -0.000000000000000000, -1.000000000000000000 ) ) ;
#146 = CARTESIAN_POINT ( 'NONE',  ( 0.000000000000000000, 0.000000000000000000, 322.0000000000000000 ) ) ;
#147 = EDGE_LOOP ( 'NONE', ( #205, #209 ) ) ;
#148 = FACE_OUTER_BOUND ( 'NONE', #229, .T. ) ;
#149 = DIRECTION ( 'NONE',  ( 0.000000000000000000, 0.000000000000000000, 1.000000000000000000 ) ) ;
#150 = ORGANIZATION ( 'NEURÈENÝ', 'NEURÈENÝ', '' ) ;
#151 = DIRECTION ( 'NONE',  ( -0.000000000000000000, -0.000000000000000000, -1.000000000000000000 ) ) ;
#152 = LOCAL_TIME ( 19, 12, 7.000000000000000000, #84 ) ;
#153 = AXIS2_PLACEMENT_3D ( 'NONE', #129, #166, #245 ) ;
#154 = DIRECTION ( 'NONE',  ( 1.000000000000000000, 0.000000000000000000, 0.000000000000000000 ) ) ;
#155 = PERSON_AND_ORGANIZATION ( #162, #150 ) ;
#156 = EDGE_CURVE ( 'NONE', #190, #246, #41, .T. ) ;
#157 = CC_DESIGN_PERSON_AND_ORGANIZATION_ASSIGNMENT ( #122, #105, ( #144 ) ) ;
#158 = VECTOR ( 'NONE', #151, 1000.000000000000000 ) ;
#159 = PERSON_AND_ORGANIZATION ( #162, #150 ) ;
#160 = APPROVAL ( #7, 'NEURÈENÝ' ) ;
#161 = ADVANCED_FACE ( 'NONE', ( #148 ), #168, .T. ) ;
#162 = PERSON ( 'NEURÈENÝ', 'NEURÈENÝ', 'NEURÈENÝ', ('NEURÈENÝ'), ('NEURÈENÝ'), ('NEURÈENÝ') ) ;
#163 = ORIENTED_EDGE ( 'NONE', *, *, #24, .F. ) ;
#164 = CARTESIAN_POINT ( 'NONE',  ( -11.00000000000000000, 0.000000000000000000, 0.000000000000000000 ) ) ;
#165 = VERTEX_POINT ( 'NONE', #131 ) ;
#166 = DIRECTION ( 'NONE',  ( 0.000000000000000000, 0.000000000000000000, 1.000000000000000000 ) ) ;
#167 = ORIENTED_EDGE ( 'NONE', *, *, #156, .F. ) ;
#168 = CYLINDRICAL_SURFACE ( 'NONE', #115, 11.00000000000000000 ) ;
#169 = CARTESIAN_POINT ( 'NONE',  ( 7.250000000000000000, 8.878689293818310074E-16, 322.0000000000000000 ) ) ;
#170 = APPROVAL_PERSON_ORGANIZATION ( #159, #194, #109 ) ;
#171 = FACE_BOUND ( 'NONE', #127, .T. ) ;
#172 = CIRCLE ( 'NONE', #62, 7.250000000000000000 ) ;
#173 = AXIS2_PLACEMENT_3D ( 'NONE', #177, #255, #237 ) ;
#174 = DIRECTION ( 'NONE',  ( -1.000000000000000000, 0.000000000000000000, 0.000000000000000000 ) ) ;
#175 = PERSON_AND_ORGANIZATION_ROLE ( 'design_owner' ) ;
#176 = EDGE_CURVE ( 'NONE', #186, #74, #117, .T. ) ;
#177 = CARTESIAN_POINT ( 'NONE',  ( 0.000000000000000000, 0.000000000000000000, 322.0000000000000000 ) ) ;
#178 = AXIS2_PLACEMENT_3D ( 'NONE', #211, #193, #103 ) ;
#179 = DATE_AND_TIME ( #20, #6 ) ;
#180 = COORDINATED_UNIVERSAL_TIME_OFFSET ( 1, 0, .AHEAD. ) ;
#181 = PRODUCT ( 'e6d7', 'e6d7', '', ( #198 ) ) ;
#182 = DATE_TIME_ROLE ( 'classification_date' ) ;
#183 = EDGE_CURVE ( 'NONE', #244, #12, #13, .T. ) ;
#184 = EDGE_CURVE ( 'NONE', #12, #74, #142, .T. ) ;
#185 = PLANE ( 'NONE',  #220 ) ;
#186 = VERTEX_POINT ( 'NONE', #134 ) ;
#187 = DIRECTION ( 'NONE',  ( 1.000000000000000000, 0.000000000000000000, -0.000000000000000000 ) ) ;
#188 = ORIENTED_EDGE ( 'NONE', *, *, #176, .T. ) ;
#189 = CARTESIAN_POINT ( 'NONE',  ( -11.00000000000000000, 0.000000000000000000, 7.000000000000000000 ) ) ;
#190 = VERTEX_POINT ( 'NONE', #118 ) ;
#191 = CARTESIAN_POINT ( 'NONE',  ( 0.000000000000000000, 0.000000000000000000, 7.000000000000000000 ) ) ;
#192 = VECTOR ( 'NONE', #247, 1000.000000000000000 ) ;
#193 = DIRECTION ( 'NONE',  ( 0.000000000000000000, 0.000000000000000000, 1.000000000000000000 ) ) ;
#194 = APPROVAL ( #23, 'NEURÈENÝ' ) ;
#195 =( NAMED_UNIT ( * ) SI_UNIT ( $, .STERADIAN. ) SOLID_ANGLE_UNIT ( ) );
#196 = MANIFOLD_SOLID_BREP ( 'Pøidat vysunutím3', #136 ) ;
#197 = CIRCLE ( 'NONE', #234, 11.00000000000000000 ) ;
#198 = MECHANICAL_CONTEXT ( 'NONE', #232, 'mechanical' ) ;
#199 = COORDINATED_UNIVERSAL_TIME_OFFSET ( 1, 0, .AHEAD. ) ;
#200 = CARTESIAN_POINT ( 'NONE',  ( 0.000000000000000000, 0.000000000000000000, 0.000000000000000000 ) ) ;
#201 = APPROVAL_DATE_TIME ( #27, #194 ) ;
#202 = LOCAL_TIME ( 19, 12, 7.000000000000000000, #180 ) ;
#203 = DATE_AND_TIME ( #4, #202 ) ;
#204 = ORIENTED_EDGE ( 'NONE', *, *, #26, .F. ) ;
#205 = ORIENTED_EDGE ( 'NONE', *, *, #251, .F. ) ;
#206 = LINE ( 'NONE', #169, #38 ) ;
#207 = ORIENTED_EDGE ( 'NONE', *, *, #183, .T. ) ;
#208 = DIRECTION ( 'NONE',  ( 0.000000000000000000, 0.000000000000000000, 1.000000000000000000 ) ) ;
#209 = ORIENTED_EDGE ( 'NONE', *, *, #184, .F. ) ;
#210 = DIRECTION ( 'NONE',  ( 1.000000000000000000, 0.000000000000000000, 0.000000000000000000 ) ) ;
#211 = CARTESIAN_POINT ( 'NONE',  ( 0.000000000000000000, 0.000000000000000000, 322.0000000000000000 ) ) ;
#212 = EDGE_CURVE ( 'NONE', #244, #186, #100, .T. ) ;
#213 = DIRECTION ( 'NONE',  ( 1.000000000000000000, 0.000000000000000000, 0.000000000000000000 ) ) ;
#214 = VECTOR ( 'NONE', #145, 1000.000000000000000 ) ;
#215 = APPLICATION_PROTOCOL_DEFINITION ( 'international standard', 'config_control_design', 1994, #232 ) ;
#216 = PERSON_AND_ORGANIZATION ( #162, #150 ) ;
#217 = CIRCLE ( 'NONE', #30, 7.250000000000000000 ) ;
#218 = SECURITY_CLASSIFICATION ( '', '', #21 ) ;
#219 = ADVANCED_FACE ( 'NONE', ( #99 ), #58, .T. ) ;
#220 = AXIS2_PLACEMENT_3D ( 'NONE', #55, #149, #14 ) ;
#221 = CC_DESIGN_SECURITY_CLASSIFICATION ( #218, ( #3 ) ) ;
#222 = ORIENTED_EDGE ( 'NONE', *, *, #156, .T. ) ;
#223 = ORIENTED_EDGE ( 'NONE', *, *, #18, .F. ) ;
#224 = CARTESIAN_POINT ( 'NONE',  ( 0.000000000000000000, 0.000000000000000000, 7.000000000000000000 ) ) ;
#225 = ORIENTED_EDGE ( 'NONE', *, *, #183, .F. ) ;
#226 = CARTESIAN_POINT ( 'NONE',  ( 0.000000000000000000, 0.000000000000000000, 7.000000000000000000 ) ) ;
#227 = VERTEX_POINT ( 'NONE', #60 ) ;
#228 = CARTESIAN_POINT ( 'NONE',  ( 0.000000000000000000, 0.000000000000000000, 0.000000000000000000 ) ) ;
#229 = EDGE_LOOP ( 'NONE', ( #225, #10, #188, #249 ) ) ;
#230 = CYLINDRICAL_SURFACE ( 'NONE', #108, 7.250000000000000000 ) ;
#231 = APPLICATION_PROTOCOL_DEFINITION ( 'international standard', 'config_control_design', 1994, #248 ) ;
#232 = APPLICATION_CONTEXT ( 'configuration controlled 3d designs of mechanical parts and assemblies' ) ;
#233 = COORDINATED_UNIVERSAL_TIME_OFFSET ( 1, 0, .AHEAD. ) ;
#234 = AXIS2_PLACEMENT_3D ( 'NONE', #200, #40, #17 ) ;
#235 = APPROVAL_STATUS ( 'not_yet_approved' ) ;
#236 = APPROVAL ( #235, 'NEURÈENÝ' ) ;
#237 = DIRECTION ( 'NONE',  ( -1.000000000000000000, 0.000000000000000000, 0.000000000000000000 ) ) ;
#238 = PERSON_AND_ORGANIZATION ( #162, #150 ) ;
#239 = DATE_AND_TIME ( #125, #152 ) ;
#240 = AXIS2_PLACEMENT_3D ( 'NONE', #224, #16, #254 ) ;
#241 = ORIENTED_EDGE ( 'NONE', *, *, #48, .T. ) ;
#242 = DIRECTION ( 'NONE',  ( -0.000000000000000000, -0.000000000000000000, -1.000000000000000000 ) ) ;
#243 = ADVANCED_FACE ( 'NONE', ( #81 ), #61, .T. ) ;
#244 = VERTEX_POINT ( 'NONE', #39 ) ;
#245 = DIRECTION ( 'NONE',  ( 1.000000000000000000, 0.000000000000000000, -0.000000000000000000 ) ) ;
#246 = VERTEX_POINT ( 'NONE', #124 ) ;
#247 = DIRECTION ( 'NONE',  ( -0.000000000000000000, -0.000000000000000000, -1.000000000000000000 ) ) ;
#248 = APPLICATION_CONTEXT ( 'configuration controlled 3d designs of mechanical parts and assemblies' ) ;
#249 = ORIENTED_EDGE ( 'NONE', *, *, #251, .T. ) ;
#250 = AXIS2_PLACEMENT_3D ( 'NONE', #94, #52, #187 ) ;
#251 = EDGE_CURVE ( 'NONE', #74, #12, #197, .T. ) ;
#252 = APPROVAL_PERSON_ORGANIZATION ( #8, #160, #107 ) ;
#253 = CARTESIAN_POINT ( 'NONE',  ( 0.000000000000000000, 0.000000000000000000, 7.000000000000000000 ) ) ;
#254 = DIRECTION ( 'NONE',  ( 1.000000000000000000, 0.000000000000000000, 0.000000000000000000 ) ) ;
#255 = DIRECTION ( 'NONE',  ( -0.000000000000000000, -0.000000000000000000, -1.000000000000000000 ) ) ;
ENDSEC;
END-ISO-10303-21;
