ISO-10303-21;
HEADER;
FILE_DESCRIPTION (( 'STEP AP203' ),
    '1' );
FILE_NAME ('d91f.STEP',
    '2022-07-07T17:17:47',
    ( '' ),
    ( '' ),
    'SwSTEP 2.0',
    'SolidWorks 2019',
    '' );
FILE_SCHEMA (( 'CONFIG_CONTROL_DESIGN' ));
ENDSEC;

DATA;
#1 = CARTESIAN_POINT ( 'NONE',  ( 6.250000000000000000, 7.654042494670957606E-16, 7.000000000000000000 ) ) ;
#2 = CC_DESIGN_APPROVAL ( #135, ( #153 ) ) ;
#3 = EDGE_LOOP ( 'NONE', ( #185, #21, #161, #103 ) ) ;
#4 = CARTESIAN_POINT ( 'NONE',  ( 9.000000000000000000, 1.102182119232617714E-15, 7.000000000000000000 ) ) ;
#5 = VERTEX_POINT ( 'NONE', #255 ) ;
#6 = VERTEX_POINT ( 'NONE', #46 ) ;
#7 = APPLICATION_CONTEXT ( 'configuration controlled 3d designs of mechanical parts and assemblies' ) ;
#8 = CC_DESIGN_PERSON_AND_ORGANIZATION_ASSIGNMENT ( #52, #209, ( #164 ) ) ;
#9 = APPROVAL_STATUS ( 'not_yet_approved' ) ;
#10 = ADVANCED_FACE ( 'NONE', ( #202 ), #28, .T. ) ;
#11 = APPROVAL_PERSON_ORGANIZATION ( #136, #223, #151 ) ;
#12 = COORDINATED_UNIVERSAL_TIME_OFFSET ( 1, 0, .AHEAD. ) ;
#13 = DATE_AND_TIME ( #190, #238 ) ;
#14 =( NAMED_UNIT ( * ) PLANE_ANGLE_UNIT ( ) SI_UNIT ( $, .RADIAN. ) );
#15 = CARTESIAN_POINT ( 'NONE',  ( -9.000000000000000000, 0.000000000000000000, 7.000000000000000000 ) ) ;
#16 = EDGE_CURVE ( 'NONE', #5, #163, #231, .T. ) ;
#17 = DIRECTION ( 'NONE',  ( -1.000000000000000000, 0.000000000000000000, 0.000000000000000000 ) ) ;
#18 = LOCAL_TIME ( 19, 17, 47.00000000000000000, #232 ) ;
#19 = DATE_AND_TIME ( #120, #93 ) ;
#20 = FACE_OUTER_BOUND ( 'NONE', #222, .T. ) ;
#21 = ORIENTED_EDGE ( 'NONE', *, *, #154, .T. ) ;
#22 = DIRECTION ( 'NONE',  ( 0.000000000000000000, 0.000000000000000000, 1.000000000000000000 ) ) ;
#23 = ORIENTED_EDGE ( 'NONE', *, *, #16, .F. ) ;
#24 = DIRECTION ( 'NONE',  ( 1.000000000000000000, 0.000000000000000000, 0.000000000000000000 ) ) ;
#25 = ORIENTED_EDGE ( 'NONE', *, *, #36, .F. ) ;
#26 = ORIENTED_EDGE ( 'NONE', *, *, #241, .F. ) ;
#27 = PRODUCT_DEFINITION ( 'NEZNÁMÝ', '', #153, #117 ) ;
#28 = CYLINDRICAL_SURFACE ( 'NONE', #95, 9.000000000000000000 ) ;
#29 = SECURITY_CLASSIFICATION_LEVEL ( 'unclassified' ) ;
#30 = CC_DESIGN_APPROVAL ( #223, ( #27 ) ) ;
#31 = PERSON_AND_ORGANIZATION ( #76, #132 ) ;
#32 = PERSON_AND_ORGANIZATION ( #76, #132 ) ;
#33 = AXIS2_PLACEMENT_3D ( 'NONE', #124, #56, #158 ) ;
#34 = PERSON_AND_ORGANIZATION_ROLE ( 'creator' ) ;
#35 = DIRECTION ( 'NONE',  ( 0.000000000000000000, 0.000000000000000000, 1.000000000000000000 ) ) ;
#36 = EDGE_CURVE ( 'NONE', #126, #159, #207, .T. ) ;
#37 = PERSON_AND_ORGANIZATION_ROLE ( 'design_owner' ) ;
#38 = FACE_OUTER_BOUND ( 'NONE', #84, .T. ) ;
#39 = COORDINATED_UNIVERSAL_TIME_OFFSET ( 1, 0, .AHEAD. ) ;
#40 = CYLINDRICAL_SURFACE ( 'NONE', #144, 6.250000000000000000 ) ;
#41 = DIRECTION ( 'NONE',  ( -0.000000000000000000, -0.000000000000000000, -1.000000000000000000 ) ) ;
#42 = ORIENTED_EDGE ( 'NONE', *, *, #105, .T. ) ;
#43 = DIRECTION ( 'NONE',  ( -0.000000000000000000, -0.000000000000000000, -1.000000000000000000 ) ) ;
#44 = AXIS2_PLACEMENT_3D ( 'NONE', #59, #81, #219 ) ;
#45 = PRODUCT ( 'd91f', 'd91f', '', ( #53 ) ) ;
#46 = CARTESIAN_POINT ( 'NONE',  ( -6.250000000000000000, 0.000000000000000000, 7.000000000000000000 ) ) ;
#47 = LOCAL_TIME ( 19, 17, 47.00000000000000000, #147 ) ;
#48 = VERTEX_POINT ( 'NONE', #1 ) ;
#49 = CC_DESIGN_PERSON_AND_ORGANIZATION_ASSIGNMENT ( #110, #91, ( #153 ) ) ;
#50 = ORIENTED_EDGE ( 'NONE', *, *, #182, .F. ) ;
#51 = DATE_AND_TIME ( #131, #18 ) ;
#52 = PERSON_AND_ORGANIZATION ( #76, #132 ) ;
#53 = MECHANICAL_CONTEXT ( 'NONE', #248, 'mechanical' ) ;
#54 = DIRECTION ( 'NONE',  ( -0.000000000000000000, -0.000000000000000000, -1.000000000000000000 ) ) ;
#55 = EDGE_CURVE ( 'NONE', #125, #226, #211, .T. ) ;
#56 = DIRECTION ( 'NONE',  ( 0.000000000000000000, 0.000000000000000000, 1.000000000000000000 ) ) ;
#57 = CARTESIAN_POINT ( 'NONE',  ( 0.000000000000000000, 0.000000000000000000, 7.000000000000000000 ) ) ;
#58 = CIRCLE ( 'NONE', #220, 9.000000000000000000 ) ;
#59 = CARTESIAN_POINT ( 'NONE',  ( 0.000000000000000000, 0.000000000000000000, 0.000000000000000000 ) ) ;
#60 = AXIS2_PLACEMENT_3D ( 'NONE', #89, #239, #197 ) ;
#61 = CARTESIAN_POINT ( 'NONE',  ( 0.000000000000000000, 0.000000000000000000, 0.000000000000000000 ) ) ;
#62 = DIRECTION ( 'NONE',  ( -1.000000000000000000, 0.000000000000000000, 0.000000000000000000 ) ) ;
#63 = AXIS2_PLACEMENT_3D ( 'NONE', #61, #195, #233 ) ;
#64 = DIRECTION ( 'NONE',  ( 1.000000000000000000, 0.000000000000000000, 0.000000000000000000 ) ) ;
#65 = PRODUCT_DEFINITION_SHAPE ( 'NONE', 'NONE',  #27 ) ;
#66 = CARTESIAN_POINT ( 'NONE',  ( 0.000000000000000000, 0.000000000000000000, 0.000000000000000000 ) ) ;
#67 = ORIENTED_EDGE ( 'NONE', *, *, #229, .T. ) ;
#68 = DIRECTION ( 'NONE',  ( -0.000000000000000000, -0.000000000000000000, -1.000000000000000000 ) ) ;
#69 = ADVANCED_FACE ( 'NONE', ( #139 ), #40, .T. ) ;
#70 = ORIENTED_EDGE ( 'NONE', *, *, #105, .F. ) ;
#71 = PERSON_AND_ORGANIZATION_ROLE ( 'design_supplier' ) ;
#72 = CALENDAR_DATE ( 2022, 7, 7 ) ;
#73 = ADVANCED_FACE ( 'NONE', ( #236, #252 ), #79, .T. ) ;
#74 = EDGE_CURVE ( 'NONE', #226, #125, #58, .T. ) ;
#75 = APPROVAL_STATUS ( 'not_yet_approved' ) ;
#76 = PERSON ( 'NEURÈENÝ', 'NEURÈENÝ', 'NEURÈENÝ', ('NEURÈENÝ'), ('NEURÈENÝ'), ('NEURÈENÝ') ) ;
#77 = CIRCLE ( 'NONE', #97, 6.250000000000000000 ) ;
#78 = CARTESIAN_POINT ( 'NONE',  ( 0.000000000000000000, 0.000000000000000000, 407.0000000000000000 ) ) ;
#79 = PLANE ( 'NONE',  #111 ) ;
#80 = MANIFOLD_SOLID_BREP ( 'Pøidat vysunutím3', #88 ) ;
#81 = DIRECTION ( 'NONE',  ( 0.000000000000000000, 0.000000000000000000, 1.000000000000000000 ) ) ;
#82 = DIRECTION ( 'NONE',  ( -1.000000000000000000, 0.000000000000000000, 0.000000000000000000 ) ) ;
#83 = DIRECTION ( 'NONE',  ( 0.000000000000000000, 0.000000000000000000, 1.000000000000000000 ) ) ;
#84 = EDGE_LOOP ( 'NONE', ( #176, #146 ) ) ;
#85 = FACE_OUTER_BOUND ( 'NONE', #205, .T. ) ;
#86 = CC_DESIGN_PERSON_AND_ORGANIZATION_ASSIGNMENT ( #31, #71, ( #153 ) ) ;
#87 = ORIENTED_EDGE ( 'NONE', *, *, #221, .F. ) ;
#88 = CLOSED_SHELL ( 'NONE', ( #148, #113, #10, #73, #133, #69, #191 ) ) ;
#89 = CARTESIAN_POINT ( 'NONE',  ( 0.000000000000000000, 0.000000000000000000, 7.000000000000000000 ) ) ;
#90 = APPROVAL_ROLE ( '' ) ;
#91 = PERSON_AND_ORGANIZATION_ROLE ( 'creator' ) ;
#92 = EDGE_CURVE ( 'NONE', #163, #5, #130, .T. ) ;
#93 = LOCAL_TIME ( 19, 17, 47.00000000000000000, #39 ) ;
#94 = DIRECTION ( 'NONE',  ( 0.000000000000000000, 0.000000000000000000, 1.000000000000000000 ) ) ;
#95 = AXIS2_PLACEMENT_3D ( 'NONE', #243, #68, #82 ) ;
#96 = DIRECTION ( 'NONE',  ( 1.000000000000000000, 0.000000000000000000, 0.000000000000000000 ) ) ;
#97 = AXIS2_PLACEMENT_3D ( 'NONE', #156, #94, #192 ) ;
#98 = CARTESIAN_POINT ( 'NONE',  ( 0.000000000000000000, 0.000000000000000000, 407.0000000000000000 ) ) ;
#99 =( LENGTH_UNIT ( ) NAMED_UNIT ( * ) SI_UNIT ( .MILLI., .METRE. ) );
#100 = CARTESIAN_POINT ( 'NONE',  ( 6.250000000000000000, 7.654042494670957606E-16, 407.0000000000000000 ) ) ;
#101 = CARTESIAN_POINT ( 'NONE',  ( 0.000000000000000000, 0.000000000000000000, 407.0000000000000000 ) ) ;
#102 = DIRECTION ( 'NONE',  ( -0.000000000000000000, -0.000000000000000000, -1.000000000000000000 ) ) ;
#103 = ORIENTED_EDGE ( 'NONE', *, *, #229, .F. ) ;
#104 = LINE ( 'NONE', #180, #251 ) ;
#105 = EDGE_CURVE ( 'NONE', #126, #6, #104, .T. ) ;
#106 = ORIENTED_EDGE ( 'NONE', *, *, #74, .F. ) ;
#107 = EDGE_LOOP ( 'NONE', ( #244, #143 ) ) ;
#108 = EDGE_LOOP ( 'NONE', ( #50, #25, #42, #127 ) ) ;
#109 = APPROVAL_DATE_TIME ( #165, #150 ) ;
#110 = PERSON_AND_ORGANIZATION ( #76, #132 ) ;
#111 = AXIS2_PLACEMENT_3D ( 'NONE', #119, #137, #196 ) ;
#112 = DATE_AND_TIME ( #72, #224 ) ;
#113 = ADVANCED_FACE ( 'NONE', ( #194 ), #134, .T. ) ;
#114 = COORDINATED_UNIVERSAL_TIME_OFFSET ( 1, 0, .AHEAD. ) ;
#115 =( GEOMETRIC_REPRESENTATION_CONTEXT ( 3 ) GLOBAL_UNCERTAINTY_ASSIGNED_CONTEXT ( ( #204 ) ) GLOBAL_UNIT_ASSIGNED_CONTEXT ( ( #99, #14, #118 ) ) REPRESENTATION_CONTEXT ( 'NONE', 'WORKASPACE' ) );
#116 = CARTESIAN_POINT ( 'NONE',  ( -9.000000000000000000, 0.000000000000000000, 0.000000000000000000 ) ) ;
#117 = DESIGN_CONTEXT ( 'detailed design', #7, 'design' ) ;
#118 =( NAMED_UNIT ( * ) SI_UNIT ( $, .STERADIAN. ) SOLID_ANGLE_UNIT ( ) );
#119 = CARTESIAN_POINT ( 'NONE',  ( 0.000000000000000000, 0.000000000000000000, 7.000000000000000000 ) ) ;
#120 = CALENDAR_DATE ( 2022, 7, 7 ) ;
#121 = APPROVAL_PERSON_ORGANIZATION ( #32, #150, #90 ) ;
#122 = DIRECTION ( 'NONE',  ( -1.000000000000000000, 0.000000000000000000, 0.000000000000000000 ) ) ;
#123 = CARTESIAN_POINT ( 'NONE',  ( 9.000000000000000000, 1.102182119232617714E-15, 7.000000000000000000 ) ) ;
#124 = CARTESIAN_POINT ( 'NONE',  ( 0.000000000000000000, 0.000000000000000000, 0.000000000000000000 ) ) ;
#125 = VERTEX_POINT ( 'NONE', #234 ) ;
#126 = VERTEX_POINT ( 'NONE', #254 ) ;
#127 = ORIENTED_EDGE ( 'NONE', *, *, #221, .T. ) ;
#128 = CC_DESIGN_PERSON_AND_ORGANIZATION_ASSIGNMENT ( #212, #34, ( #27 ) ) ;
#129 = APPROVAL_DATE_TIME ( #19, #223 ) ;
#130 = CIRCLE ( 'NONE', #171, 9.000000000000000000 ) ;
#131 = CALENDAR_DATE ( 2022, 7, 7 ) ;
#132 = ORGANIZATION ( 'NEURÈENÝ', 'NEURÈENÝ', '' ) ;
#133 = ADVANCED_FACE ( 'NONE', ( #20 ), #177, .F. ) ;
#134 = CYLINDRICAL_SURFACE ( 'NONE', #188, 9.000000000000000000 ) ;
#135 = APPROVAL ( #75, 'NEURÈENÝ' ) ;
#136 = PERSON_AND_ORGANIZATION ( #76, #132 ) ;
#137 = DIRECTION ( 'NONE',  ( 0.000000000000000000, 0.000000000000000000, 1.000000000000000000 ) ) ;
#138 = PERSON_AND_ORGANIZATION ( #76, #132 ) ;
#139 = FACE_OUTER_BOUND ( 'NONE', #108, .T. ) ;
#140 = ORIENTED_EDGE ( 'NONE', *, *, #154, .F. ) ;
#141 = DIRECTION ( 'NONE',  ( -0.000000000000000000, -0.000000000000000000, -1.000000000000000000 ) ) ;
#142 = CC_DESIGN_DATE_AND_TIME_ASSIGNMENT ( #112, #228, ( #164 ) ) ;
#143 = ORIENTED_EDGE ( 'NONE', *, *, #92, .T. ) ;
#144 = AXIS2_PLACEMENT_3D ( 'NONE', #78, #141, #17 ) ;
#145 = AXIS2_PLACEMENT_3D ( 'NONE', #237, #213, #62 ) ;
#146 = ORIENTED_EDGE ( 'NONE', *, *, #241, .T. ) ;
#147 = COORDINATED_UNIVERSAL_TIME_OFFSET ( 1, 0, .AHEAD. ) ;
#148 = ADVANCED_FACE ( 'NONE', ( #85 ), #200, .T. ) ;
#149 = APPROVAL_PERSON_ORGANIZATION ( #250, #135, #152 ) ;
#150 = APPROVAL ( #9, 'NEURÈENÝ' ) ;
#151 = APPROVAL_ROLE ( '' ) ;
#152 = APPROVAL_ROLE ( '' ) ;
#153 = PRODUCT_DEFINITION_FORMATION_WITH_SPECIFIED_SOURCE ( 'LIBOVOLNÝ', '', #45, .NOT_KNOWN. ) ;
#154 = EDGE_CURVE ( 'NONE', #163, #125, #253, .T. ) ;
#155 = DIRECTION ( 'NONE',  ( 1.000000000000000000, 0.000000000000000000, 0.000000000000000000 ) ) ;
#156 = CARTESIAN_POINT ( 'NONE',  ( 0.000000000000000000, 0.000000000000000000, 407.0000000000000000 ) ) ;
#157 = CARTESIAN_POINT ( 'NONE',  ( 0.000000000000000000, 0.000000000000000000, 7.000000000000000000 ) ) ;
#158 = DIRECTION ( 'NONE',  ( 1.000000000000000000, 0.000000000000000000, -0.000000000000000000 ) ) ;
#159 = VERTEX_POINT ( 'NONE', #100 ) ;
#160 = CARTESIAN_POINT ( 'NONE',  ( 0.000000000000000000, 0.000000000000000000, 7.000000000000000000 ) ) ;
#161 = ORIENTED_EDGE ( 'NONE', *, *, #55, .T. ) ;
#162 = PLANE ( 'NONE',  #201 ) ;
#163 = VERTEX_POINT ( 'NONE', #4 ) ;
#164 = SECURITY_CLASSIFICATION ( '', '', #29 ) ;
#165 = DATE_AND_TIME ( #189, #47 ) ;
#166 = VECTOR ( 'NONE', #41, 1000.000000000000000 ) ;
#167 = AXIS2_PLACEMENT_3D ( 'NONE', #57, #35, #96 ) ;
#168 = DATE_TIME_ROLE ( 'creation_date' ) ;
#169 = CC_DESIGN_PERSON_AND_ORGANIZATION_ASSIGNMENT ( #138, #37, ( #45 ) ) ;
#170 = DIRECTION ( 'NONE',  ( 1.000000000000000000, 0.000000000000000000, 0.000000000000000000 ) ) ;
#171 = AXIS2_PLACEMENT_3D ( 'NONE', #160, #83, #24 ) ;
#172 = DIRECTION ( 'NONE',  ( 1.000000000000000000, 0.000000000000000000, -0.000000000000000000 ) ) ;
#173 = VECTOR ( 'NONE', #54, 1000.000000000000000 ) ;
#174 = DIRECTION ( 'NONE',  ( 0.000000000000000000, 0.000000000000000000, 1.000000000000000000 ) ) ;
#175 = DIRECTION ( 'NONE',  ( 0.000000000000000000, 0.000000000000000000, 1.000000000000000000 ) ) ;
#176 = ORIENTED_EDGE ( 'NONE', *, *, #36, .T. ) ;
#177 = PLANE ( 'NONE',  #33 ) ;
#178 = CC_DESIGN_SECURITY_CLASSIFICATION ( #164, ( #153 ) ) ;
#179 = DIRECTION ( 'NONE',  ( 0.000000000000000000, 0.000000000000000000, 1.000000000000000000 ) ) ;
#180 = CARTESIAN_POINT ( 'NONE',  ( -6.250000000000000000, 0.000000000000000000, 407.0000000000000000 ) ) ;
#181 = ORIENTED_EDGE ( 'NONE', *, *, #247, .F. ) ;
#182 = EDGE_CURVE ( 'NONE', #159, #48, #198, .T. ) ;
#183 = CC_DESIGN_DATE_AND_TIME_ASSIGNMENT ( #13, #168, ( #27 ) ) ;
#184 = EDGE_LOOP ( 'NONE', ( #140, #23, #67, #218 ) ) ;
#185 = ORIENTED_EDGE ( 'NONE', *, *, #92, .F. ) ;
#186 = AXIS2_PLACEMENT_3D ( 'NONE', #157, #22, #170 ) ;
#187 = ADVANCED_BREP_SHAPE_REPRESENTATION ( 'd91f', ( #80, #63 ), #115 ) ;
#188 = AXIS2_PLACEMENT_3D ( 'NONE', #240, #43, #122 ) ;
#189 = CALENDAR_DATE ( 2022, 7, 7 ) ;
#190 = CALENDAR_DATE ( 2022, 7, 7 ) ;
#191 = ADVANCED_FACE ( 'NONE', ( #38 ), #162, .T. ) ;
#192 = DIRECTION ( 'NONE',  ( 1.000000000000000000, 0.000000000000000000, 0.000000000000000000 ) ) ;
#193 = APPLICATION_PROTOCOL_DEFINITION ( 'international standard', 'config_control_design', 1994, #7 ) ;
#194 = FACE_OUTER_BOUND ( 'NONE', #3, .T. ) ;
#195 = DIRECTION ( 'NONE',  ( 0.000000000000000000, 0.000000000000000000, 1.000000000000000000 ) ) ;
#196 = DIRECTION ( 'NONE',  ( 1.000000000000000000, 0.000000000000000000, -0.000000000000000000 ) ) ;
#197 = DIRECTION ( 'NONE',  ( 1.000000000000000000, 0.000000000000000000, 0.000000000000000000 ) ) ;
#198 = LINE ( 'NONE', #217, #166 ) ;
#199 = ORIENTED_EDGE ( 'NONE', *, *, #247, .T. ) ;
#200 = CYLINDRICAL_SURFACE ( 'NONE', #145, 6.250000000000000000 ) ;
#201 = AXIS2_PLACEMENT_3D ( 'NONE', #98, #174, #172 ) ;
#202 = FACE_OUTER_BOUND ( 'NONE', #184, .T. ) ;
#203 = EDGE_LOOP ( 'NONE', ( #87, #181 ) ) ;
#204 = UNCERTAINTY_MEASURE_WITH_UNIT (LENGTH_MEASURE( 1.000000000000000082E-05 ), #99, 'distance_accuracy_value', 'NONE');
#205 = EDGE_LOOP ( 'NONE', ( #26, #242, #199, #70 ) ) ;
#206 = SHAPE_DEFINITION_REPRESENTATION ( #65, #187 ) ;
#207 = CIRCLE ( 'NONE', #227, 6.250000000000000000 ) ;
#208 = CIRCLE ( 'NONE', #167, 6.250000000000000000 ) ;
#209 = PERSON_AND_ORGANIZATION_ROLE ( 'classification_officer' ) ;
#210 = VECTOR ( 'NONE', #215, 1000.000000000000000 ) ;
#211 = CIRCLE ( 'NONE', #44, 9.000000000000000000 ) ;
#212 = PERSON_AND_ORGANIZATION ( #76, #132 ) ;
#213 = DIRECTION ( 'NONE',  ( -0.000000000000000000, -0.000000000000000000, -1.000000000000000000 ) ) ;
#214 = APPROVAL_STATUS ( 'not_yet_approved' ) ;
#215 = DIRECTION ( 'NONE',  ( -0.000000000000000000, -0.000000000000000000, -1.000000000000000000 ) ) ;
#216 = CC_DESIGN_APPROVAL ( #150, ( #164 ) ) ;
#217 = CARTESIAN_POINT ( 'NONE',  ( 6.250000000000000000, 7.654042494670957606E-16, 407.0000000000000000 ) ) ;
#218 = ORIENTED_EDGE ( 'NONE', *, *, #74, .T. ) ;
#219 = DIRECTION ( 'NONE',  ( 1.000000000000000000, 0.000000000000000000, 0.000000000000000000 ) ) ;
#220 = AXIS2_PLACEMENT_3D ( 'NONE', #66, #175, #155 ) ;
#221 = EDGE_CURVE ( 'NONE', #6, #48, #245, .T. ) ;
#222 = EDGE_LOOP ( 'NONE', ( #106, #225 ) ) ;
#223 = APPROVAL ( #214, 'NEURÈENÝ' ) ;
#224 = LOCAL_TIME ( 19, 17, 47.00000000000000000, #12 ) ;
#225 = ORIENTED_EDGE ( 'NONE', *, *, #55, .F. ) ;
#226 = VERTEX_POINT ( 'NONE', #116 ) ;
#227 = AXIS2_PLACEMENT_3D ( 'NONE', #101, #179, #64 ) ;
#228 = DATE_TIME_ROLE ( 'classification_date' ) ;
#229 = EDGE_CURVE ( 'NONE', #5, #226, #235, .T. ) ;
#230 = APPLICATION_PROTOCOL_DEFINITION ( 'international standard', 'config_control_design', 1994, #248 ) ;
#231 = CIRCLE ( 'NONE', #60, 9.000000000000000000 ) ;
#232 = COORDINATED_UNIVERSAL_TIME_OFFSET ( 1, 0, .AHEAD. ) ;
#233 = DIRECTION ( 'NONE',  ( 1.000000000000000000, 0.000000000000000000, 0.000000000000000000 ) ) ;
#234 = CARTESIAN_POINT ( 'NONE',  ( 9.000000000000000000, 1.102182119232617714E-15, 0.000000000000000000 ) ) ;
#235 = LINE ( 'NONE', #15, #173 ) ;
#236 = FACE_BOUND ( 'NONE', #203, .T. ) ;
#237 = CARTESIAN_POINT ( 'NONE',  ( 0.000000000000000000, 0.000000000000000000, 407.0000000000000000 ) ) ;
#238 = LOCAL_TIME ( 19, 17, 47.00000000000000000, #114 ) ;
#239 = DIRECTION ( 'NONE',  ( 0.000000000000000000, 0.000000000000000000, 1.000000000000000000 ) ) ;
#240 = CARTESIAN_POINT ( 'NONE',  ( 0.000000000000000000, 0.000000000000000000, 7.000000000000000000 ) ) ;
#241 = EDGE_CURVE ( 'NONE', #159, #126, #77, .T. ) ;
#242 = ORIENTED_EDGE ( 'NONE', *, *, #182, .T. ) ;
#243 = CARTESIAN_POINT ( 'NONE',  ( 0.000000000000000000, 0.000000000000000000, 7.000000000000000000 ) ) ;
#244 = ORIENTED_EDGE ( 'NONE', *, *, #16, .T. ) ;
#245 = CIRCLE ( 'NONE', #186, 6.250000000000000000 ) ;
#246 = APPROVAL_DATE_TIME ( #51, #135 ) ;
#247 = EDGE_CURVE ( 'NONE', #48, #6, #208, .T. ) ;
#248 = APPLICATION_CONTEXT ( 'configuration controlled 3d designs of mechanical parts and assemblies' ) ;
#249 = PRODUCT_RELATED_PRODUCT_CATEGORY ( 'detail', '', ( #45 ) ) ;
#250 = PERSON_AND_ORGANIZATION ( #76, #132 ) ;
#251 = VECTOR ( 'NONE', #102, 1000.000000000000000 ) ;
#252 = FACE_OUTER_BOUND ( 'NONE', #107, .T. ) ;
#253 = LINE ( 'NONE', #123, #210 ) ;
#254 = CARTESIAN_POINT ( 'NONE',  ( -6.250000000000000000, 0.000000000000000000, 407.0000000000000000 ) ) ;
#255 = CARTESIAN_POINT ( 'NONE',  ( -9.000000000000000000, 0.000000000000000000, 7.000000000000000000 ) ) ;
ENDSEC;
END-ISO-10303-21;
