ISO-10303-21;
HEADER;
FILE_DESCRIPTION (( 'STEP AP203' ),
    '1' );
FILE_NAME ('dfca.STEP',
    '2022-07-07T17:27:34',
    ( '' ),
    ( '' ),
    'SwSTEP 2.0',
    'SolidWorks 2019',
    '' );
FILE_SCHEMA (( 'CONFIG_CONTROL_DESIGN' ));
ENDSEC;

DATA;
#1 = ORIENTED_EDGE ( 'NONE', *, *, #32, .F. ) ;
#2 = DIRECTION ( 'NONE',  ( 0.000000000000000000, 0.000000000000000000, 1.000000000000000000 ) ) ;
#3 = ADVANCED_FACE ( 'NONE', ( #118 ), #14, .T. ) ;
#4 = COORDINATED_UNIVERSAL_TIME_OFFSET ( 1, 0, .AHEAD. ) ;
#5 = CARTESIAN_POINT ( 'NONE',  ( -5.000000000000000000, 0.000000000000000000, 5.000000000000000000 ) ) ;
#6 = DIRECTION ( 'NONE',  ( -0.000000000000000000, -0.000000000000000000, -1.000000000000000000 ) ) ;
#7 = COORDINATED_UNIVERSAL_TIME_OFFSET ( 1, 0, .AHEAD. ) ;
#8 = CARTESIAN_POINT ( 'NONE',  ( 0.000000000000000000, 0.000000000000000000, 5.000000000000000000 ) ) ;
#9 = EDGE_CURVE ( 'NONE', #64, #245, #61, .T. ) ;
#10 = APPROVAL_ROLE ( '' ) ;
#11 = DIRECTION ( 'NONE',  ( 0.000000000000000000, 0.000000000000000000, 1.000000000000000000 ) ) ;
#12 =( NAMED_UNIT ( * ) PLANE_ANGLE_UNIT ( ) SI_UNIT ( $, .RADIAN. ) );
#13 = DATE_AND_TIME ( #142, #185 ) ;
#14 = PLANE ( 'NONE',  #174 ) ;
#15 = EDGE_CURVE ( 'NONE', #76, #16, #199, .T. ) ;
#16 = VERTEX_POINT ( 'NONE', #69 ) ;
#17 = APPROVAL_PERSON_ORGANIZATION ( #35, #215, #189 ) ;
#18 = CLOSED_SHELL ( 'NONE', ( #175, #195, #254, #91, #148, #97, #3 ) ) ;
#19 = DIRECTION ( 'NONE',  ( 1.000000000000000000, 0.000000000000000000, 0.000000000000000000 ) ) ;
#20 = VERTEX_POINT ( 'NONE', #5 ) ;
#21 = SHAPE_DEFINITION_REPRESENTATION ( #232, #154 ) ;
#22 = EDGE_CURVE ( 'NONE', #16, #124, #23, .T. ) ;
#23 = LINE ( 'NONE', #73, #43 ) ;
#24 = APPLICATION_PROTOCOL_DEFINITION ( 'international standard', 'config_control_design', 1994, #126 ) ;
#25 = ORIENTED_EDGE ( 'NONE', *, *, #235, .T. ) ;
#26 = CYLINDRICAL_SURFACE ( 'NONE', #181, 8.000000000000000000 ) ;
#27 = DIRECTION ( 'NONE',  ( 0.000000000000000000, 0.000000000000000000, 1.000000000000000000 ) ) ;
#28 = ORIENTED_EDGE ( 'NONE', *, *, #15, .F. ) ;
#29 = CALENDAR_DATE ( 2022, 7, 7 ) ;
#30 = CARTESIAN_POINT ( 'NONE',  ( 8.000000000000000000, 9.797174393178825657E-16, 0.000000000000000000 ) ) ;
#31 = LINE ( 'NONE', #205, #86 ) ;
#32 = EDGE_CURVE ( 'NONE', #16, #76, #194, .T. ) ;
#33 = APPROVAL_STATUS ( 'not_yet_approved' ) ;
#34 = DIRECTION ( 'NONE',  ( -1.000000000000000000, 0.000000000000000000, 0.000000000000000000 ) ) ;
#35 = PERSON_AND_ORGANIZATION ( #133, #225 ) ;
#36 = DATE_AND_TIME ( #29, #180 ) ;
#37 = CARTESIAN_POINT ( 'NONE',  ( 0.000000000000000000, 0.000000000000000000, 0.000000000000000000 ) ) ;
#38 = ORIENTED_EDGE ( 'NONE', *, *, #115, .F. ) ;
#39 = DIRECTION ( 'NONE',  ( 1.000000000000000000, 0.000000000000000000, -0.000000000000000000 ) ) ;
#40 = PRODUCT_DEFINITION_FORMATION_WITH_SPECIFIED_SOURCE ( 'LIBOVOLNÝ', '', #255, .NOT_KNOWN. ) ;
#41 = AXIS2_PLACEMENT_3D ( 'NONE', #147, #65, #167 ) ;
#42 = AXIS2_PLACEMENT_3D ( 'NONE', #166, #208, #45 ) ;
#43 = VECTOR ( 'NONE', #88, 1000.000000000000000 ) ;
#44 = AXIS2_PLACEMENT_3D ( 'NONE', #150, #117, #52 ) ;
#45 = DIRECTION ( 'NONE',  ( 1.000000000000000000, 0.000000000000000000, 0.000000000000000000 ) ) ;
#46 = EDGE_LOOP ( 'NONE', ( #105, #178 ) ) ;
#47 = PERSON_AND_ORGANIZATION_ROLE ( 'creator' ) ;
#48 = CARTESIAN_POINT ( 'NONE',  ( -8.000000000000000000, 0.000000000000000000, 5.000000000000000000 ) ) ;
#49 = LOCAL_TIME ( 19, 27, 34.00000000000000000, #100 ) ;
#50 = ORIENTED_EDGE ( 'NONE', *, *, #9, .T. ) ;
#51 = DATE_AND_TIME ( #109, #143 ) ;
#52 = DIRECTION ( 'NONE',  ( -1.000000000000000000, 0.000000000000000000, 0.000000000000000000 ) ) ;
#53 = EDGE_CURVE ( 'NONE', #245, #64, #179, .T. ) ;
#54 = CARTESIAN_POINT ( 'NONE',  ( 0.000000000000000000, 0.000000000000000000, 0.000000000000000000 ) ) ;
#55 = CARTESIAN_POINT ( 'NONE',  ( 0.000000000000000000, 0.000000000000000000, 5.000000000000000000 ) ) ;
#56 = COORDINATED_UNIVERSAL_TIME_OFFSET ( 1, 0, .AHEAD. ) ;
#57 = FACE_OUTER_BOUND ( 'NONE', #155, .T. ) ;
#58 = ORIENTED_EDGE ( 'NONE', *, *, #94, .T. ) ;
#59 = CC_DESIGN_APPROVAL ( #131, ( #191 ) ) ;
#60 = PRODUCT_DEFINITION ( 'NEZNÁMÝ', '', #40, #81 ) ;
#61 = CIRCLE ( 'NONE', #157, 5.000000000000000000 ) ;
#62 = EDGE_CURVE ( 'NONE', #93, #124, #151, .T. ) ;
#63 = CYLINDRICAL_SURFACE ( 'NONE', #102, 8.000000000000000000 ) ;
#64 = VERTEX_POINT ( 'NONE', #107 ) ;
#65 = DIRECTION ( 'NONE',  ( 0.000000000000000000, 0.000000000000000000, 1.000000000000000000 ) ) ;
#66 = DIRECTION ( 'NONE',  ( 1.000000000000000000, 0.000000000000000000, 0.000000000000000000 ) ) ;
#67 = EDGE_LOOP ( 'NONE', ( #137, #50 ) ) ;
#68 = PERSON_AND_ORGANIZATION ( #133, #225 ) ;
#69 = CARTESIAN_POINT ( 'NONE',  ( 8.000000000000000000, 9.797174393178825657E-16, 5.000000000000000000 ) ) ;
#70 = FACE_BOUND ( 'NONE', #98, .T. ) ;
#71 = DIRECTION ( 'NONE',  ( -0.000000000000000000, -0.000000000000000000, -1.000000000000000000 ) ) ;
#72 = PERSON_AND_ORGANIZATION_ROLE ( 'classification_officer' ) ;
#73 = CARTESIAN_POINT ( 'NONE',  ( 8.000000000000000000, 9.797174393178825657E-16, 5.000000000000000000 ) ) ;
#74 = APPROVAL ( #164, 'NEURÈENÝ' ) ;
#75 = ORIENTED_EDGE ( 'NONE', *, *, #252, .T. ) ;
#76 = VERTEX_POINT ( 'NONE', #48 ) ;
#77 = AXIS2_PLACEMENT_3D ( 'NONE', #55, #11, #173 ) ;
#78 = APPROVAL_DATE_TIME ( #201, #215 ) ;
#79 = ORIENTED_EDGE ( 'NONE', *, *, #218, .F. ) ;
#80 = PLANE ( 'NONE',  #41 ) ;
#81 = DESIGN_CONTEXT ( 'detailed design', #126, 'design' ) ;
#82 = DIRECTION ( 'NONE',  ( -1.000000000000000000, 0.000000000000000000, 0.000000000000000000 ) ) ;
#83 = DATE_TIME_ROLE ( 'creation_date' ) ;
#84 = DIRECTION ( 'NONE',  ( 1.000000000000000000, 0.000000000000000000, -0.000000000000000000 ) ) ;
#85 = FACE_OUTER_BOUND ( 'NONE', #46, .T. ) ;
#86 = VECTOR ( 'NONE', #6, 1000.000000000000000 ) ;
#87 = COORDINATED_UNIVERSAL_TIME_OFFSET ( 1, 0, .AHEAD. ) ;
#88 = DIRECTION ( 'NONE',  ( -0.000000000000000000, -0.000000000000000000, -1.000000000000000000 ) ) ;
#89 = AXIS2_PLACEMENT_3D ( 'NONE', #226, #170, #193 ) ;
#90 = CC_DESIGN_APPROVAL ( #215, ( #60 ) ) ;
#91 = ADVANCED_FACE ( 'NONE', ( #70, #85 ), #211, .T. ) ;
#92 = CIRCLE ( 'NONE', #214, 5.000000000000000000 ) ;
#93 = VERTEX_POINT ( 'NONE', #132 ) ;
#94 = EDGE_CURVE ( 'NONE', #245, #20, #110, .T. ) ;
#95 = AXIS2_PLACEMENT_3D ( 'NONE', #230, #2, #128 ) ;
#96 = VECTOR ( 'NONE', #186, 1000.000000000000000 ) ;
#97 = ADVANCED_FACE ( 'NONE', ( #249 ), #243, .T. ) ;
#98 = EDGE_LOOP ( 'NONE', ( #79, #197 ) ) ;
#99 = AXIS2_PLACEMENT_3D ( 'NONE', #8, #251, #84 ) ;
#100 = COORDINATED_UNIVERSAL_TIME_OFFSET ( 1, 0, .AHEAD. ) ;
#101 = EDGE_LOOP ( 'NONE', ( #217, #202, #75, #212 ) ) ;
#102 = AXIS2_PLACEMENT_3D ( 'NONE', #123, #168, #111 ) ;
#103 = DIRECTION ( 'NONE',  ( 0.000000000000000000, 0.000000000000000000, 1.000000000000000000 ) ) ;
#104 = CALENDAR_DATE ( 2022, 7, 7 ) ;
#105 = ORIENTED_EDGE ( 'NONE', *, *, #15, .T. ) ;
#106 = PERSON_AND_ORGANIZATION ( #133, #225 ) ;
#107 = CARTESIAN_POINT ( 'NONE',  ( 5.000000000000000000, 6.123233995736766282E-16, 165.0000000000000000 ) ) ;
#108 = DIRECTION ( 'NONE',  ( -0.000000000000000000, -0.000000000000000000, -1.000000000000000000 ) ) ;
#109 = CALENDAR_DATE ( 2022, 7, 7 ) ;
#110 = LINE ( 'NONE', #165, #96 ) ;
#111 = DIRECTION ( 'NONE',  ( -1.000000000000000000, 0.000000000000000000, 0.000000000000000000 ) ) ;
#112 = DIRECTION ( 'NONE',  ( 0.000000000000000000, 0.000000000000000000, 1.000000000000000000 ) ) ;
#113 = AXIS2_PLACEMENT_3D ( 'NONE', #54, #27, #19 ) ;
#114 = APPROVAL_STATUS ( 'not_yet_approved' ) ;
#115 = EDGE_CURVE ( 'NONE', #124, #93, #213, .T. ) ;
#116 = APPROVAL_ROLE ( '' ) ;
#117 = DIRECTION ( 'NONE',  ( -0.000000000000000000, -0.000000000000000000, -1.000000000000000000 ) ) ;
#118 = FACE_OUTER_BOUND ( 'NONE', #67, .T. ) ;
#119 = CC_DESIGN_PERSON_AND_ORGANIZATION_ASSIGNMENT ( #171, #229, ( #255 ) ) ;
#120 = CC_DESIGN_PERSON_AND_ORGANIZATION_ASSIGNMENT ( #106, #125, ( #40 ) ) ;
#121 = CC_DESIGN_SECURITY_CLASSIFICATION ( #191, ( #40 ) ) ;
#122 = ORIENTED_EDGE ( 'NONE', *, *, #231, .F. ) ;
#123 = CARTESIAN_POINT ( 'NONE',  ( 0.000000000000000000, 0.000000000000000000, 5.000000000000000000 ) ) ;
#124 = VERTEX_POINT ( 'NONE', #30 ) ;
#125 = PERSON_AND_ORGANIZATION_ROLE ( 'design_supplier' ) ;
#126 = APPLICATION_CONTEXT ( 'configuration controlled 3d designs of mechanical parts and assemblies' ) ;
#127 = CARTESIAN_POINT ( 'NONE',  ( 0.000000000000000000, 0.000000000000000000, 165.0000000000000000 ) ) ;
#128 = DIRECTION ( 'NONE',  ( 1.000000000000000000, 0.000000000000000000, 0.000000000000000000 ) ) ;
#129 = MECHANICAL_CONTEXT ( 'NONE', #160, 'mechanical' ) ;
#130 = CARTESIAN_POINT ( 'NONE',  ( 0.000000000000000000, 0.000000000000000000, 165.0000000000000000 ) ) ;
#131 = APPROVAL ( #33, 'NEURÈENÝ' ) ;
#132 = CARTESIAN_POINT ( 'NONE',  ( -8.000000000000000000, 0.000000000000000000, 0.000000000000000000 ) ) ;
#133 = PERSON ( 'NEURÈENÝ', 'NEURÈENÝ', 'NEURÈENÝ', ('NEURÈENÝ'), ('NEURÈENÝ'), ('NEURÈENÝ') ) ;
#134 =( GEOMETRIC_REPRESENTATION_CONTEXT ( 3 ) GLOBAL_UNCERTAINTY_ASSIGNED_CONTEXT ( ( #187 ) ) GLOBAL_UNIT_ASSIGNED_CONTEXT ( ( #224, #12, #138 ) ) REPRESENTATION_CONTEXT ( 'NONE', 'WORKASPACE' ) );
#135 = CC_DESIGN_PERSON_AND_ORGANIZATION_ASSIGNMENT ( #242, #47, ( #40 ) ) ;
#136 = MANIFOLD_SOLID_BREP ( 'Pøidat vysunutím3', #18 ) ;
#137 = ORIENTED_EDGE ( 'NONE', *, *, #53, .T. ) ;
#138 =( NAMED_UNIT ( * ) SI_UNIT ( $, .STERADIAN. ) SOLID_ANGLE_UNIT ( ) );
#139 = ORIENTED_EDGE ( 'NONE', *, *, #218, .T. ) ;
#140 = CYLINDRICAL_SURFACE ( 'NONE', #156, 5.000000000000000000 ) ;
#141 = CARTESIAN_POINT ( 'NONE',  ( 5.000000000000000000, 6.123233995736766282E-16, 165.0000000000000000 ) ) ;
#142 = CALENDAR_DATE ( 2022, 7, 7 ) ;
#143 = LOCAL_TIME ( 19, 27, 34.00000000000000000, #56 ) ;
#144 = DIRECTION ( 'NONE',  ( 0.000000000000000000, 0.000000000000000000, 1.000000000000000000 ) ) ;
#145 = APPLICATION_PROTOCOL_DEFINITION ( 'international standard', 'config_control_design', 1994, #160 ) ;
#146 = DATE_AND_TIME ( #203, #239 ) ;
#147 = CARTESIAN_POINT ( 'NONE',  ( 0.000000000000000000, 0.000000000000000000, 0.000000000000000000 ) ) ;
#148 = ADVANCED_FACE ( 'NONE', ( #57 ), #80, .F. ) ;
#149 = DIRECTION ( 'NONE',  ( 0.000000000000000000, 0.000000000000000000, 1.000000000000000000 ) ) ;
#150 = CARTESIAN_POINT ( 'NONE',  ( 0.000000000000000000, 0.000000000000000000, 165.0000000000000000 ) ) ;
#151 = CIRCLE ( 'NONE', #216, 8.000000000000000000 ) ;
#152 = CIRCLE ( 'NONE', #42, 5.000000000000000000 ) ;
#153 = EDGE_LOOP ( 'NONE', ( #122, #253, #58, #139 ) ) ;
#154 = ADVANCED_BREP_SHAPE_REPRESENTATION ( 'dfca', ( #136, #113 ), #134 ) ;
#155 = EDGE_LOOP ( 'NONE', ( #236, #38 ) ) ;
#156 = AXIS2_PLACEMENT_3D ( 'NONE', #127, #204, #34 ) ;
#157 = AXIS2_PLACEMENT_3D ( 'NONE', #192, #144, #200 ) ;
#158 = EDGE_LOOP ( 'NONE', ( #1, #196, #206, #219 ) ) ;
#159 = AXIS2_PLACEMENT_3D ( 'NONE', #130, #103, #209 ) ;
#160 = APPLICATION_CONTEXT ( 'configuration controlled 3d designs of mechanical parts and assemblies' ) ;
#161 = CC_DESIGN_APPROVAL ( #74, ( #40 ) ) ;
#162 = PERSON_AND_ORGANIZATION ( #133, #225 ) ;
#163 = ORIENTED_EDGE ( 'NONE', *, *, #22, .F. ) ;
#164 = APPROVAL_STATUS ( 'not_yet_approved' ) ;
#165 = CARTESIAN_POINT ( 'NONE',  ( -5.000000000000000000, 0.000000000000000000, 165.0000000000000000 ) ) ;
#166 = CARTESIAN_POINT ( 'NONE',  ( 0.000000000000000000, 0.000000000000000000, 5.000000000000000000 ) ) ;
#167 = DIRECTION ( 'NONE',  ( 1.000000000000000000, 0.000000000000000000, -0.000000000000000000 ) ) ;
#168 = DIRECTION ( 'NONE',  ( -0.000000000000000000, -0.000000000000000000, -1.000000000000000000 ) ) ;
#169 = DATE_TIME_ROLE ( 'classification_date' ) ;
#170 = DIRECTION ( 'NONE',  ( 0.000000000000000000, 0.000000000000000000, 1.000000000000000000 ) ) ;
#171 = PERSON_AND_ORGANIZATION ( #133, #225 ) ;
#172 = PERSON_AND_ORGANIZATION ( #133, #225 ) ;
#173 = DIRECTION ( 'NONE',  ( 1.000000000000000000, 0.000000000000000000, 0.000000000000000000 ) ) ;
#174 = AXIS2_PLACEMENT_3D ( 'NONE', #198, #240, #39 ) ;
#175 = ADVANCED_FACE ( 'NONE', ( #228 ), #140, .T. ) ;
#176 = CC_DESIGN_DATE_AND_TIME_ASSIGNMENT ( #36, #169, ( #191 ) ) ;
#177 = EDGE_LOOP ( 'NONE', ( #163, #28, #25, #182 ) ) ;
#178 = ORIENTED_EDGE ( 'NONE', *, *, #32, .T. ) ;
#179 = CIRCLE ( 'NONE', #159, 5.000000000000000000 ) ;
#180 = LOCAL_TIME ( 19, 27, 34.00000000000000000, #4 ) ;
#181 = AXIS2_PLACEMENT_3D ( 'NONE', #188, #71, #82 ) ;
#182 = ORIENTED_EDGE ( 'NONE', *, *, #62, .T. ) ;
#183 = CC_DESIGN_DATE_AND_TIME_ASSIGNMENT ( #51, #83, ( #60 ) ) ;
#184 = VERTEX_POINT ( 'NONE', #247 ) ;
#185 = LOCAL_TIME ( 19, 27, 34.00000000000000000, #87 ) ;
#186 = DIRECTION ( 'NONE',  ( -0.000000000000000000, -0.000000000000000000, -1.000000000000000000 ) ) ;
#187 = UNCERTAINTY_MEASURE_WITH_UNIT (LENGTH_MEASURE( 1.000000000000000082E-05 ), #224, 'distance_accuracy_value', 'NONE');
#188 = CARTESIAN_POINT ( 'NONE',  ( 0.000000000000000000, 0.000000000000000000, 5.000000000000000000 ) ) ;
#189 = APPROVAL_ROLE ( '' ) ;
#190 = FACE_OUTER_BOUND ( 'NONE', #158, .T. ) ;
#191 = SECURITY_CLASSIFICATION ( '', '', #223 ) ;
#192 = CARTESIAN_POINT ( 'NONE',  ( 0.000000000000000000, 0.000000000000000000, 165.0000000000000000 ) ) ;
#193 = DIRECTION ( 'NONE',  ( 1.000000000000000000, 0.000000000000000000, 0.000000000000000000 ) ) ;
#194 = CIRCLE ( 'NONE', #77, 8.000000000000000000 ) ;
#195 = ADVANCED_FACE ( 'NONE', ( #190 ), #26, .T. ) ;
#196 = ORIENTED_EDGE ( 'NONE', *, *, #22, .T. ) ;
#197 = ORIENTED_EDGE ( 'NONE', *, *, #252, .F. ) ;
#198 = CARTESIAN_POINT ( 'NONE',  ( 0.000000000000000000, 0.000000000000000000, 165.0000000000000000 ) ) ;
#199 = CIRCLE ( 'NONE', #89, 8.000000000000000000 ) ;
#200 = DIRECTION ( 'NONE',  ( 1.000000000000000000, 0.000000000000000000, 0.000000000000000000 ) ) ;
#201 = DATE_AND_TIME ( #104, #49 ) ;
#202 = ORIENTED_EDGE ( 'NONE', *, *, #231, .T. ) ;
#203 = CALENDAR_DATE ( 2022, 7, 7 ) ;
#204 = DIRECTION ( 'NONE',  ( -0.000000000000000000, -0.000000000000000000, -1.000000000000000000 ) ) ;
#205 = CARTESIAN_POINT ( 'NONE',  ( -8.000000000000000000, 0.000000000000000000, 5.000000000000000000 ) ) ;
#206 = ORIENTED_EDGE ( 'NONE', *, *, #115, .T. ) ;
#207 = DIRECTION ( 'NONE',  ( 1.000000000000000000, 0.000000000000000000, 0.000000000000000000 ) ) ;
#208 = DIRECTION ( 'NONE',  ( 0.000000000000000000, 0.000000000000000000, 1.000000000000000000 ) ) ;
#209 = DIRECTION ( 'NONE',  ( 1.000000000000000000, 0.000000000000000000, 0.000000000000000000 ) ) ;
#210 = FACE_OUTER_BOUND ( 'NONE', #177, .T. ) ;
#211 = PLANE ( 'NONE',  #99 ) ;
#212 = ORIENTED_EDGE ( 'NONE', *, *, #94, .F. ) ;
#213 = CIRCLE ( 'NONE', #95, 8.000000000000000000 ) ;
#214 = AXIS2_PLACEMENT_3D ( 'NONE', #222, #149, #66 ) ;
#215 = APPROVAL ( #114, 'NEURÈENÝ' ) ;
#216 = AXIS2_PLACEMENT_3D ( 'NONE', #37, #112, #207 ) ;
#217 = ORIENTED_EDGE ( 'NONE', *, *, #9, .F. ) ;
#218 = EDGE_CURVE ( 'NONE', #20, #184, #152, .T. ) ;
#219 = ORIENTED_EDGE ( 'NONE', *, *, #235, .F. ) ;
#220 = APPROVAL_PERSON_ORGANIZATION ( #246, #74, #10 ) ;
#221 = CC_DESIGN_PERSON_AND_ORGANIZATION_ASSIGNMENT ( #172, #72, ( #191 ) ) ;
#222 = CARTESIAN_POINT ( 'NONE',  ( 0.000000000000000000, 0.000000000000000000, 5.000000000000000000 ) ) ;
#223 = SECURITY_CLASSIFICATION_LEVEL ( 'unclassified' ) ;
#224 =( LENGTH_UNIT ( ) NAMED_UNIT ( * ) SI_UNIT ( .MILLI., .METRE. ) );
#225 = ORGANIZATION ( 'NEURÈENÝ', 'NEURÈENÝ', '' ) ;
#226 = CARTESIAN_POINT ( 'NONE',  ( 0.000000000000000000, 0.000000000000000000, 5.000000000000000000 ) ) ;
#227 = APPROVAL_DATE_TIME ( #146, #131 ) ;
#228 = FACE_OUTER_BOUND ( 'NONE', #101, .T. ) ;
#229 = PERSON_AND_ORGANIZATION_ROLE ( 'design_owner' ) ;
#230 = CARTESIAN_POINT ( 'NONE',  ( 0.000000000000000000, 0.000000000000000000, 0.000000000000000000 ) ) ;
#231 = EDGE_CURVE ( 'NONE', #64, #184, #248, .T. ) ;
#232 = PRODUCT_DEFINITION_SHAPE ( 'NONE', 'NONE',  #60 ) ;
#233 = CC_DESIGN_PERSON_AND_ORGANIZATION_ASSIGNMENT ( #162, #241, ( #60 ) ) ;
#234 = APPROVAL_PERSON_ORGANIZATION ( #68, #131, #116 ) ;
#235 = EDGE_CURVE ( 'NONE', #76, #93, #31, .T. ) ;
#236 = ORIENTED_EDGE ( 'NONE', *, *, #62, .F. ) ;
#237 = VECTOR ( 'NONE', #108, 1000.000000000000000 ) ;
#238 = PRODUCT_RELATED_PRODUCT_CATEGORY ( 'detail', '', ( #255 ) ) ;
#239 = LOCAL_TIME ( 19, 27, 34.00000000000000000, #7 ) ;
#240 = DIRECTION ( 'NONE',  ( 0.000000000000000000, 0.000000000000000000, 1.000000000000000000 ) ) ;
#241 = PERSON_AND_ORGANIZATION_ROLE ( 'creator' ) ;
#242 = PERSON_AND_ORGANIZATION ( #133, #225 ) ;
#243 = CYLINDRICAL_SURFACE ( 'NONE', #44, 5.000000000000000000 ) ;
#244 = CARTESIAN_POINT ( 'NONE',  ( -5.000000000000000000, 0.000000000000000000, 165.0000000000000000 ) ) ;
#245 = VERTEX_POINT ( 'NONE', #244 ) ;
#246 = PERSON_AND_ORGANIZATION ( #133, #225 ) ;
#247 = CARTESIAN_POINT ( 'NONE',  ( 5.000000000000000000, 6.123233995736766282E-16, 5.000000000000000000 ) ) ;
#248 = LINE ( 'NONE', #141, #237 ) ;
#249 = FACE_OUTER_BOUND ( 'NONE', #153, .T. ) ;
#250 = APPROVAL_DATE_TIME ( #13, #74 ) ;
#251 = DIRECTION ( 'NONE',  ( 0.000000000000000000, 0.000000000000000000, 1.000000000000000000 ) ) ;
#252 = EDGE_CURVE ( 'NONE', #184, #20, #92, .T. ) ;
#253 = ORIENTED_EDGE ( 'NONE', *, *, #53, .F. ) ;
#254 = ADVANCED_FACE ( 'NONE', ( #210 ), #63, .T. ) ;
#255 = PRODUCT ( 'dfca', 'dfca', '', ( #129 ) ) ;
ENDSEC;
END-ISO-10303-21;
