ISO-10303-21;
HEADER;
FILE_DESCRIPTION (( 'STEP AP203' ),
    '1' );
FILE_NAME ('93b1.STEP',
    '2022-07-07T17:25:29',
    ( '' ),
    ( '' ),
    'SwSTEP 2.0',
    'SolidWorks 2019',
    '' );
FILE_SCHEMA (( 'CONFIG_CONTROL_DESIGN' ));
ENDSEC;

DATA;
#1 = ORIENTED_EDGE ( 'NONE', *, *, #128, .F. ) ;
#2 = CYLINDRICAL_SURFACE ( 'NONE', #51, 5.099999999999999645 ) ;
#3 = AXIS2_PLACEMENT_3D ( 'NONE', #114, #56, #210 ) ;
#4 = CARTESIAN_POINT ( 'NONE',  ( 0.000000000000000000, 0.000000000000000000, 5.000000000000000000 ) ) ;
#5 = DESIGN_CONTEXT ( 'detailed design', #11, 'design' ) ;
#6 = APPROVAL_ROLE ( '' ) ;
#7 = EDGE_CURVE ( 'NONE', #181, #190, #85, .T. ) ;
#8 = DATE_AND_TIME ( #202, #169 ) ;
#9 = ADVANCED_FACE ( 'NONE', ( #35 ), #191, .T. ) ;
#10 = SHAPE_DEFINITION_REPRESENTATION ( #229, #93 ) ;
#11 = APPLICATION_CONTEXT ( 'configuration controlled 3d designs of mechanical parts and assemblies' ) ;
#12 = APPROVAL ( #221, 'NEURÈENÝ' ) ;
#13 = ORIENTED_EDGE ( 'NONE', *, *, #226, .T. ) ;
#14 = CARTESIAN_POINT ( 'NONE',  ( 8.000000000000000000, 9.797174393178825657E-16, 0.000000000000000000 ) ) ;
#15 = DIRECTION ( 'NONE',  ( -0.000000000000000000, -0.000000000000000000, -1.000000000000000000 ) ) ;
#16 = CARTESIAN_POINT ( 'NONE',  ( 0.000000000000000000, 0.000000000000000000, 255.0000000000000000 ) ) ;
#17 = CARTESIAN_POINT ( 'NONE',  ( 0.000000000000000000, 0.000000000000000000, 255.0000000000000000 ) ) ;
#18 = FACE_OUTER_BOUND ( 'NONE', #151, .T. ) ;
#19 = ORIENTED_EDGE ( 'NONE', *, *, #7, .F. ) ;
#20 = CYLINDRICAL_SURFACE ( 'NONE', #199, 8.000000000000000000 ) ;
#21 = DIRECTION ( 'NONE',  ( 0.000000000000000000, 0.000000000000000000, 1.000000000000000000 ) ) ;
#22 = PRODUCT_DEFINITION_FORMATION_WITH_SPECIFIED_SOURCE ( 'LIBOVOLNÝ', '', #91, .NOT_KNOWN. ) ;
#23 = PERSON_AND_ORGANIZATION_ROLE ( 'creator' ) ;
#24 = EDGE_CURVE ( 'NONE', #94, #34, #224, .T. ) ;
#25 = CARTESIAN_POINT ( 'NONE',  ( 5.099999999999999645, 6.245698675651500839E-16, 5.000000000000000000 ) ) ;
#26 = AXIS2_PLACEMENT_3D ( 'NONE', #73, #39, #235 ) ;
#27 = CC_DESIGN_PERSON_AND_ORGANIZATION_ASSIGNMENT ( #66, #49, ( #91 ) ) ;
#28 = PERSON_AND_ORGANIZATION ( #84, #183 ) ;
#29 = APPROVAL_PERSON_ORGANIZATION ( #247, #225, #52 ) ;
#30 = DATE_AND_TIME ( #90, #187 ) ;
#31 = CC_DESIGN_PERSON_AND_ORGANIZATION_ASSIGNMENT ( #228, #129, ( #22 ) ) ;
#32 = AXIS2_PLACEMENT_3D ( 'NONE', #17, #97, #176 ) ;
#33 = CC_DESIGN_DATE_AND_TIME_ASSIGNMENT ( #144, #218, ( #46 ) ) ;
#34 = VERTEX_POINT ( 'NONE', #249 ) ;
#35 = FACE_OUTER_BOUND ( 'NONE', #117, .T. ) ;
#36 = CARTESIAN_POINT ( 'NONE',  ( 0.000000000000000000, 0.000000000000000000, 5.000000000000000000 ) ) ;
#37 = VECTOR ( 'NONE', #135, 1000.000000000000000 ) ;
#38 = ORIENTED_EDGE ( 'NONE', *, *, #201, .F. ) ;
#39 = DIRECTION ( 'NONE',  ( 0.000000000000000000, 0.000000000000000000, 1.000000000000000000 ) ) ;
#40 = DIRECTION ( 'NONE',  ( 1.000000000000000000, 0.000000000000000000, 0.000000000000000000 ) ) ;
#41 = FACE_OUTER_BOUND ( 'NONE', #179, .T. ) ;
#42 = DIRECTION ( 'NONE',  ( 1.000000000000000000, 0.000000000000000000, 0.000000000000000000 ) ) ;
#43 = UNCERTAINTY_MEASURE_WITH_UNIT (LENGTH_MEASURE( 1.000000000000000082E-05 ), #47, 'distance_accuracy_value', 'NONE');
#44 = DIRECTION ( 'NONE',  ( 0.000000000000000000, 0.000000000000000000, 1.000000000000000000 ) ) ;
#45 = CC_DESIGN_APPROVAL ( #131, ( #46 ) ) ;
#46 = PRODUCT_DEFINITION ( 'NEZNÁMÝ', '', #22, #5 ) ;
#47 =( LENGTH_UNIT ( ) NAMED_UNIT ( * ) SI_UNIT ( .MILLI., .METRE. ) );
#48 = DIRECTION ( 'NONE',  ( -0.000000000000000000, -0.000000000000000000, -1.000000000000000000 ) ) ;
#49 = PERSON_AND_ORGANIZATION_ROLE ( 'design_owner' ) ;
#50 = AXIS2_PLACEMENT_3D ( 'NONE', #239, #184, #95 ) ;
#51 = AXIS2_PLACEMENT_3D ( 'NONE', #198, #217, #121 ) ;
#52 = APPROVAL_ROLE ( '' ) ;
#53 = PERSON_AND_ORGANIZATION_ROLE ( 'classification_officer' ) ;
#54 = CIRCLE ( 'NONE', #248, 8.000000000000000000 ) ;
#55 = ORIENTED_EDGE ( 'NONE', *, *, #111, .F. ) ;
#56 = DIRECTION ( 'NONE',  ( 0.000000000000000000, 0.000000000000000000, 1.000000000000000000 ) ) ;
#57 = CARTESIAN_POINT ( 'NONE',  ( 8.000000000000000000, 9.797174393178825657E-16, 5.000000000000000000 ) ) ;
#58 = ORIENTED_EDGE ( 'NONE', *, *, #128, .T. ) ;
#59 = DIRECTION ( 'NONE',  ( 1.000000000000000000, 0.000000000000000000, 0.000000000000000000 ) ) ;
#60 = VECTOR ( 'NONE', #242, 1000.000000000000000 ) ;
#61 = ORIENTED_EDGE ( 'NONE', *, *, #226, .F. ) ;
#62 = CARTESIAN_POINT ( 'NONE',  ( -5.099999999999999645, 0.000000000000000000, 255.0000000000000000 ) ) ;
#63 = PLANE ( 'NONE',  #26 ) ;
#64 = EDGE_CURVE ( 'NONE', #190, #181, #54, .T. ) ;
#65 = COORDINATED_UNIVERSAL_TIME_OFFSET ( 1, 0, .AHEAD. ) ;
#66 = PERSON_AND_ORGANIZATION ( #84, #183 ) ;
#67 = CARTESIAN_POINT ( 'NONE',  ( 0.000000000000000000, 0.000000000000000000, 0.000000000000000000 ) ) ;
#68 = COORDINATED_UNIVERSAL_TIME_OFFSET ( 1, 0, .AHEAD. ) ;
#69 = EDGE_CURVE ( 'NONE', #234, #250, #110, .T. ) ;
#70 = ORIENTED_EDGE ( 'NONE', *, *, #64, .T. ) ;
#71 = CIRCLE ( 'NONE', #143, 8.000000000000000000 ) ;
#72 = EDGE_LOOP ( 'NONE', ( #55, #156 ) ) ;
#73 = CARTESIAN_POINT ( 'NONE',  ( 0.000000000000000000, 0.000000000000000000, 5.000000000000000000 ) ) ;
#74 = DIRECTION ( 'NONE',  ( 0.000000000000000000, 0.000000000000000000, 1.000000000000000000 ) ) ;
#75 = LINE ( 'NONE', #102, #220 ) ;
#77 = ADVANCED_FACE ( 'NONE', ( #76 ), #2, .T. ) ;
#76 = FACE_OUTER_BOUND ( 'NONE', #99, .T. ) ;
#78 = EDGE_CURVE ( 'NONE', #190, #254, #75, .T. ) ;
#79 = AXIS2_PLACEMENT_3D ( 'NONE', #212, #15, #193 ) ;
#80 = ORIENTED_EDGE ( 'NONE', *, *, #163, .T. ) ;
#81 = CARTESIAN_POINT ( 'NONE',  ( 0.000000000000000000, 0.000000000000000000, 0.000000000000000000 ) ) ;
#82 = MECHANICAL_CONTEXT ( 'NONE', #215, 'mechanical' ) ;
#83 = LINE ( 'NONE', #108, #60 ) ;
#84 = PERSON ( 'NEURÈENÝ', 'NEURÈENÝ', 'NEURÈENÝ', ('NEURÈENÝ'), ('NEURÈENÝ'), ('NEURÈENÝ') ) ;
#85 = CIRCLE ( 'NONE', #3, 8.000000000000000000 ) ;
#86 = APPROVAL_STATUS ( 'not_yet_approved' ) ;
#87 = CARTESIAN_POINT ( 'NONE',  ( -5.099999999999999645, 0.000000000000000000, 5.000000000000000000 ) ) ;
#88 = SECURITY_CLASSIFICATION ( '', '', #148 ) ;
#89 = DATE_AND_TIME ( #186, #231 ) ;
#90 = CALENDAR_DATE ( 2022, 7, 7 ) ;
#91 = PRODUCT ( '93b1', '93b1', '', ( #82 ) ) ;
#92 = ADVANCED_FACE ( 'NONE', ( #18 ), #139, .T. ) ;
#93 = ADVANCED_BREP_SHAPE_REPRESENTATION ( '93b1', ( #132, #112 ), #126 ) ;
#94 = VERTEX_POINT ( 'NONE', #62 ) ;
#95 = DIRECTION ( 'NONE',  ( -1.000000000000000000, 0.000000000000000000, 0.000000000000000000 ) ) ;
#96 = AXIS2_PLACEMENT_3D ( 'NONE', #16, #182, #105 ) ;
#97 = DIRECTION ( 'NONE',  ( 0.000000000000000000, 0.000000000000000000, 1.000000000000000000 ) ) ;
#98 = FACE_OUTER_BOUND ( 'NONE', #133, .T. ) ;
#99 = EDGE_LOOP ( 'NONE', ( #38, #238, #13, #134 ) ) ;
#100 = CARTESIAN_POINT ( 'NONE',  ( 8.000000000000000000, 9.797174393178825657E-16, 5.000000000000000000 ) ) ;
#101 = ORIENTED_EDGE ( 'NONE', *, *, #163, .F. ) ;
#102 = CARTESIAN_POINT ( 'NONE',  ( -8.000000000000000000, 0.000000000000000000, 5.000000000000000000 ) ) ;
#103 = LOCAL_TIME ( 19, 25, 29.00000000000000000, #65 ) ;
#104 = LINE ( 'NONE', #106, #203 ) ;
#105 = DIRECTION ( 'NONE',  ( 1.000000000000000000, 0.000000000000000000, -0.000000000000000000 ) ) ;
#106 = CARTESIAN_POINT ( 'NONE',  ( -5.099999999999999645, 0.000000000000000000, 255.0000000000000000 ) ) ;
#107 = CALENDAR_DATE ( 2022, 7, 7 ) ;
#108 = CARTESIAN_POINT ( 'NONE',  ( 5.099999999999999645, 6.245698675651500839E-16, 255.0000000000000000 ) ) ;
#109 = DATE_TIME_ROLE ( 'classification_date' ) ;
#110 = CIRCLE ( 'NONE', #214, 5.099999999999999645 ) ;
#111 = EDGE_CURVE ( 'NONE', #250, #234, #116, .T. ) ;
#112 = AXIS2_PLACEMENT_3D ( 'NONE', #67, #44, #123 ) ;
#113 = ORIENTED_EDGE ( 'NONE', *, *, #178, .F. ) ;
#114 = CARTESIAN_POINT ( 'NONE',  ( 0.000000000000000000, 0.000000000000000000, 5.000000000000000000 ) ) ;
#115 = DIRECTION ( 'NONE',  ( 0.000000000000000000, 0.000000000000000000, 1.000000000000000000 ) ) ;
#116 = CIRCLE ( 'NONE', #146, 5.099999999999999645 ) ;
#117 = EDGE_LOOP ( 'NONE', ( #101, #173, #119, #61 ) ) ;
#118 = DIRECTION ( 'NONE',  ( 0.000000000000000000, 0.000000000000000000, 1.000000000000000000 ) ) ;
#119 = ORIENTED_EDGE ( 'NONE', *, *, #69, .T. ) ;
#120 = DIRECTION ( 'NONE',  ( 1.000000000000000000, 0.000000000000000000, -0.000000000000000000 ) ) ;
#121 = DIRECTION ( 'NONE',  ( -1.000000000000000000, 0.000000000000000000, 0.000000000000000000 ) ) ;
#122 = ADVANCED_FACE ( 'NONE', ( #41 ), #192, .T. ) ;
#123 = DIRECTION ( 'NONE',  ( 1.000000000000000000, 0.000000000000000000, 0.000000000000000000 ) ) ;
#124 = COORDINATED_UNIVERSAL_TIME_OFFSET ( 1, 0, .AHEAD. ) ;
#125 = ADVANCED_FACE ( 'NONE', ( #98 ), #219, .F. ) ;
#126 =( GEOMETRIC_REPRESENTATION_CONTEXT ( 3 ) GLOBAL_UNCERTAINTY_ASSIGNED_CONTEXT ( ( #43 ) ) GLOBAL_UNIT_ASSIGNED_CONTEXT ( ( #47, #168, #222 ) ) REPRESENTATION_CONTEXT ( 'NONE', 'WORKASPACE' ) );
#127 = APPLICATION_PROTOCOL_DEFINITION ( 'international standard', 'config_control_design', 1994, #11 ) ;
#128 = EDGE_CURVE ( 'NONE', #158, #254, #71, .T. ) ;
#129 = PERSON_AND_ORGANIZATION_ROLE ( 'creator' ) ;
#130 = COORDINATED_UNIVERSAL_TIME_OFFSET ( 1, 0, .AHEAD. ) ;
#131 = APPROVAL ( #86, 'NEURÈENÝ' ) ;
#132 = MANIFOLD_SOLID_BREP ( 'Pøidat vysunutím3', #244 ) ;
#133 = EDGE_LOOP ( 'NONE', ( #113, #1 ) ) ;
#134 = ORIENTED_EDGE ( 'NONE', *, *, #111, .T. ) ;
#135 = DIRECTION ( 'NONE',  ( -0.000000000000000000, -0.000000000000000000, -1.000000000000000000 ) ) ;
#136 = EDGE_LOOP ( 'NONE', ( #70, #236 ) ) ;
#137 = DIRECTION ( 'NONE',  ( 1.000000000000000000, 0.000000000000000000, 0.000000000000000000 ) ) ;
#138 = ORIENTED_EDGE ( 'NONE', *, *, #178, .T. ) ;
#139 = CYLINDRICAL_SURFACE ( 'NONE', #50, 8.000000000000000000 ) ;
#140 = FACE_OUTER_BOUND ( 'NONE', #161, .T. ) ;
#141 = PERSON_AND_ORGANIZATION ( #84, #183 ) ;
#142 = APPROVAL_PERSON_ORGANIZATION ( #185, #12, #197 ) ;
#143 = AXIS2_PLACEMENT_3D ( 'NONE', #81, #196, #154 ) ;
#144 = DATE_AND_TIME ( #107, #103 ) ;
#145 = ADVANCED_FACE ( 'NONE', ( #140 ), #20, .T. ) ;
#146 = AXIS2_PLACEMENT_3D ( 'NONE', #36, #21, #42 ) ;
#147 = CC_DESIGN_PERSON_AND_ORGANIZATION_ASSIGNMENT ( #141, #23, ( #46 ) ) ;
#148 = SECURITY_CLASSIFICATION_LEVEL ( 'unclassified' ) ;
#149 = AXIS2_PLACEMENT_3D ( 'NONE', #157, #118, #213 ) ;
#150 = CC_DESIGN_PERSON_AND_ORGANIZATION_ASSIGNMENT ( #230, #205, ( #22 ) ) ;
#151 = EDGE_LOOP ( 'NONE', ( #19, #240, #58, #208 ) ) ;
#152 = APPROVAL_PERSON_ORGANIZATION ( #164, #131, #6 ) ;
#153 = ORIENTED_EDGE ( 'NONE', *, *, #188, .F. ) ;
#154 = DIRECTION ( 'NONE',  ( 1.000000000000000000, 0.000000000000000000, 0.000000000000000000 ) ) ;
#155 = PRODUCT_RELATED_PRODUCT_CATEGORY ( 'detail', '', ( #91 ) ) ;
#156 = ORIENTED_EDGE ( 'NONE', *, *, #69, .F. ) ;
#157 = CARTESIAN_POINT ( 'NONE',  ( 0.000000000000000000, 0.000000000000000000, 0.000000000000000000 ) ) ;
#158 = VERTEX_POINT ( 'NONE', #14 ) ;
#159 = CARTESIAN_POINT ( 'NONE',  ( 0.000000000000000000, 0.000000000000000000, 5.000000000000000000 ) ) ;
#160 = CIRCLE ( 'NONE', #189, 5.099999999999999645 ) ;
#161 = EDGE_LOOP ( 'NONE', ( #153, #195, #232, #138 ) ) ;
#162 = DIRECTION ( 'NONE',  ( -1.000000000000000000, 0.000000000000000000, 0.000000000000000000 ) ) ;
#163 = EDGE_CURVE ( 'NONE', #34, #94, #160, .T. ) ;
#164 = PERSON_AND_ORGANIZATION ( #84, #183 ) ;
#165 = CARTESIAN_POINT ( 'NONE',  ( -8.000000000000000000, 0.000000000000000000, 0.000000000000000000 ) ) ;
#166 = CALENDAR_DATE ( 2022, 7, 7 ) ;
#167 = ADVANCED_FACE ( 'NONE', ( #253, #177 ), #63, .T. ) ;
#168 =( NAMED_UNIT ( * ) PLANE_ANGLE_UNIT ( ) SI_UNIT ( $, .RADIAN. ) );
#169 = LOCAL_TIME ( 19, 25, 29.00000000000000000, #200 ) ;
#170 = APPROVAL_DATE_TIME ( #30, #225 ) ;
#171 = CIRCLE ( 'NONE', #149, 8.000000000000000000 ) ;
#172 = CC_DESIGN_DATE_AND_TIME_ASSIGNMENT ( #89, #109, ( #88 ) ) ;
#173 = ORIENTED_EDGE ( 'NONE', *, *, #201, .T. ) ;
#174 = DIRECTION ( 'NONE',  ( -0.000000000000000000, -0.000000000000000000, -1.000000000000000000 ) ) ;
#175 = CC_DESIGN_APPROVAL ( #225, ( #88 ) ) ;
#176 = DIRECTION ( 'NONE',  ( 1.000000000000000000, 0.000000000000000000, 0.000000000000000000 ) ) ;
#177 = FACE_OUTER_BOUND ( 'NONE', #136, .T. ) ;
#178 = EDGE_CURVE ( 'NONE', #254, #158, #171, .T. ) ;
#179 = EDGE_LOOP ( 'NONE', ( #216, #80 ) ) ;
#180 = CARTESIAN_POINT ( 'NONE',  ( 0.000000000000000000, 0.000000000000000000, 255.0000000000000000 ) ) ;
#181 = VERTEX_POINT ( 'NONE', #100 ) ;
#182 = DIRECTION ( 'NONE',  ( 0.000000000000000000, 0.000000000000000000, 1.000000000000000000 ) ) ;
#183 = ORGANIZATION ( 'NEURÈENÝ', 'NEURÈENÝ', '' ) ;
#184 = DIRECTION ( 'NONE',  ( -0.000000000000000000, -0.000000000000000000, -1.000000000000000000 ) ) ;
#185 = PERSON_AND_ORGANIZATION ( #84, #183 ) ;
#186 = CALENDAR_DATE ( 2022, 7, 7 ) ;
#187 = LOCAL_TIME ( 19, 25, 29.00000000000000000, #130 ) ;
#188 = EDGE_CURVE ( 'NONE', #181, #158, #255, .T. ) ;
#189 = AXIS2_PLACEMENT_3D ( 'NONE', #180, #241, #137 ) ;
#190 = VERTEX_POINT ( 'NONE', #211 ) ;
#191 = CYLINDRICAL_SURFACE ( 'NONE', #79, 5.099999999999999645 ) ;
#192 = PLANE ( 'NONE',  #96 ) ;
#193 = DIRECTION ( 'NONE',  ( -1.000000000000000000, 0.000000000000000000, 0.000000000000000000 ) ) ;
#194 = DIRECTION ( 'NONE',  ( 0.000000000000000000, 0.000000000000000000, 1.000000000000000000 ) ) ;
#195 = ORIENTED_EDGE ( 'NONE', *, *, #64, .F. ) ;
#196 = DIRECTION ( 'NONE',  ( 0.000000000000000000, 0.000000000000000000, 1.000000000000000000 ) ) ;
#197 = APPROVAL_ROLE ( '' ) ;
#198 = CARTESIAN_POINT ( 'NONE',  ( 0.000000000000000000, 0.000000000000000000, 255.0000000000000000 ) ) ;
#199 = AXIS2_PLACEMENT_3D ( 'NONE', #4, #174, #162 ) ;
#200 = COORDINATED_UNIVERSAL_TIME_OFFSET ( 1, 0, .AHEAD. ) ;
#201 = EDGE_CURVE ( 'NONE', #34, #234, #83, .T. ) ;
#202 = CALENDAR_DATE ( 2022, 7, 7 ) ;
#203 = VECTOR ( 'NONE', #48, 1000.000000000000000 ) ;
#204 = DATE_AND_TIME ( #166, #207 ) ;
#205 = PERSON_AND_ORGANIZATION_ROLE ( 'design_supplier' ) ;
#206 = APPROVAL_STATUS ( 'not_yet_approved' ) ;
#207 = LOCAL_TIME ( 19, 25, 29.00000000000000000, #124 ) ;
#208 = ORIENTED_EDGE ( 'NONE', *, *, #78, .F. ) ;
#209 = CC_DESIGN_PERSON_AND_ORGANIZATION_ASSIGNMENT ( #28, #53, ( #88 ) ) ;
#210 = DIRECTION ( 'NONE',  ( 1.000000000000000000, 0.000000000000000000, 0.000000000000000000 ) ) ;
#211 = CARTESIAN_POINT ( 'NONE',  ( -8.000000000000000000, 0.000000000000000000, 5.000000000000000000 ) ) ;
#212 = CARTESIAN_POINT ( 'NONE',  ( 0.000000000000000000, 0.000000000000000000, 255.0000000000000000 ) ) ;
#213 = DIRECTION ( 'NONE',  ( 1.000000000000000000, 0.000000000000000000, 0.000000000000000000 ) ) ;
#214 = AXIS2_PLACEMENT_3D ( 'NONE', #159, #194, #59 ) ;
#215 = APPLICATION_CONTEXT ( 'configuration controlled 3d designs of mechanical parts and assemblies' ) ;
#216 = ORIENTED_EDGE ( 'NONE', *, *, #24, .T. ) ;
#217 = DIRECTION ( 'NONE',  ( -0.000000000000000000, -0.000000000000000000, -1.000000000000000000 ) ) ;
#218 = DATE_TIME_ROLE ( 'creation_date' ) ;
#219 = PLANE ( 'NONE',  #227 ) ;
#220 = VECTOR ( 'NONE', #251, 1000.000000000000000 ) ;
#221 = APPROVAL_STATUS ( 'not_yet_approved' ) ;
#222 =( NAMED_UNIT ( * ) SI_UNIT ( $, .STERADIAN. ) SOLID_ANGLE_UNIT ( ) );
#223 = APPLICATION_PROTOCOL_DEFINITION ( 'international standard', 'config_control_design', 1994, #215 ) ;
#224 = CIRCLE ( 'NONE', #32, 5.099999999999999645 ) ;
#225 = APPROVAL ( #206, 'NEURÈENÝ' ) ;
#226 = EDGE_CURVE ( 'NONE', #94, #250, #104, .T. ) ;
#227 = AXIS2_PLACEMENT_3D ( 'NONE', #237, #115, #120 ) ;
#228 = PERSON_AND_ORGANIZATION ( #84, #183 ) ;
#229 = PRODUCT_DEFINITION_SHAPE ( 'NONE', 'NONE',  #46 ) ;
#230 = PERSON_AND_ORGANIZATION ( #84, #183 ) ;
#231 = LOCAL_TIME ( 19, 25, 29.00000000000000000, #68 ) ;
#232 = ORIENTED_EDGE ( 'NONE', *, *, #78, .T. ) ;
#233 = CC_DESIGN_SECURITY_CLASSIFICATION ( #88, ( #22 ) ) ;
#234 = VERTEX_POINT ( 'NONE', #25 ) ;
#235 = DIRECTION ( 'NONE',  ( 1.000000000000000000, 0.000000000000000000, -0.000000000000000000 ) ) ;
#236 = ORIENTED_EDGE ( 'NONE', *, *, #7, .T. ) ;
#237 = CARTESIAN_POINT ( 'NONE',  ( 0.000000000000000000, 0.000000000000000000, 0.000000000000000000 ) ) ;
#238 = ORIENTED_EDGE ( 'NONE', *, *, #24, .F. ) ;
#239 = CARTESIAN_POINT ( 'NONE',  ( 0.000000000000000000, 0.000000000000000000, 5.000000000000000000 ) ) ;
#240 = ORIENTED_EDGE ( 'NONE', *, *, #188, .T. ) ;
#241 = DIRECTION ( 'NONE',  ( 0.000000000000000000, 0.000000000000000000, 1.000000000000000000 ) ) ;
#242 = DIRECTION ( 'NONE',  ( -0.000000000000000000, -0.000000000000000000, -1.000000000000000000 ) ) ;
#243 = APPROVAL_DATE_TIME ( #204, #131 ) ;
#244 = CLOSED_SHELL ( 'NONE', ( #9, #92, #145, #167, #125, #77, #122 ) ) ;
#245 = APPROVAL_DATE_TIME ( #8, #12 ) ;
#246 = CC_DESIGN_APPROVAL ( #12, ( #22 ) ) ;
#247 = PERSON_AND_ORGANIZATION ( #84, #183 ) ;
#248 = AXIS2_PLACEMENT_3D ( 'NONE', #252, #74, #40 ) ;
#249 = CARTESIAN_POINT ( 'NONE',  ( 5.099999999999999645, 6.245698675651500839E-16, 255.0000000000000000 ) ) ;
#250 = VERTEX_POINT ( 'NONE', #87 ) ;
#251 = DIRECTION ( 'NONE',  ( -0.000000000000000000, -0.000000000000000000, -1.000000000000000000 ) ) ;
#252 = CARTESIAN_POINT ( 'NONE',  ( 0.000000000000000000, 0.000000000000000000, 5.000000000000000000 ) ) ;
#253 = FACE_BOUND ( 'NONE', #72, .T. ) ;
#254 = VERTEX_POINT ( 'NONE', #165 ) ;
#255 = LINE ( 'NONE', #57, #37 ) ;
ENDSEC;
END-ISO-10303-21;
