ISO-10303-21;
HEADER;
FILE_DESCRIPTION (( 'STEP AP203' ),
    '1' );
FILE_NAME ('3e40.STEP',
    '2022-07-07T17:28:14',
    ( '' ),
    ( '' ),
    'SwSTEP 2.0',
    'SolidWorks 2019',
    '' );
FILE_SCHEMA (( 'CONFIG_CONTROL_DESIGN' ));
ENDSEC;

DATA;
#1 = DIRECTION ( 'NONE',  ( -1.000000000000000000, 0.000000000000000000, 0.000000000000000000 ) ) ;
#2 = APPROVAL_PERSON_ORGANIZATION ( #233, #224, #36 ) ;
#3 = CC_DESIGN_PERSON_AND_ORGANIZATION_ASSIGNMENT ( #59, #77, ( #52 ) ) ;
#4 = ORIENTED_EDGE ( 'NONE', *, *, #166, .F. ) ;
#5 = DIRECTION ( 'NONE',  ( -1.000000000000000000, 0.000000000000000000, 0.000000000000000000 ) ) ;
#6 = VERTEX_POINT ( 'NONE', #253 ) ;
#7 = ORIENTED_EDGE ( 'NONE', *, *, #42, .F. ) ;
#8 = VECTOR ( 'NONE', #15, 1000.000000000000000 ) ;
#9 = DIRECTION ( 'NONE',  ( 1.000000000000000000, 0.000000000000000000, -0.000000000000000000 ) ) ;
#10 = CALENDAR_DATE ( 2022, 7, 7 ) ;
#11 = EDGE_CURVE ( 'NONE', #249, #28, #25, .T. ) ;
#12 = PLANE ( 'NONE',  #148 ) ;
#13 = CIRCLE ( 'NONE', #225, 4.500000000000000000 ) ;
#14 = COORDINATED_UNIVERSAL_TIME_OFFSET ( 1, 0, .AHEAD. ) ;
#15 = DIRECTION ( 'NONE',  ( -0.000000000000000000, -0.000000000000000000, -1.000000000000000000 ) ) ;
#16 = PERSON_AND_ORGANIZATION_ROLE ( 'design_owner' ) ;
#17 = DIRECTION ( 'NONE',  ( -0.000000000000000000, -0.000000000000000000, -1.000000000000000000 ) ) ;
#18 = APPROVAL ( #122, 'NEURÈENÝ' ) ;
#19 = PERSON_AND_ORGANIZATION ( #226, #95 ) ;
#20 = APPLICATION_PROTOCOL_DEFINITION ( 'international standard', 'config_control_design', 1994, #72 ) ;
#21 = AXIS2_PLACEMENT_3D ( 'NONE', #194, #173, #33 ) ;
#22 =( NAMED_UNIT ( * ) SI_UNIT ( $, .STERADIAN. ) SOLID_ANGLE_UNIT ( ) );
#23 = DIRECTION ( 'NONE',  ( -0.000000000000000000, -0.000000000000000000, -1.000000000000000000 ) ) ;
#24 = DIRECTION ( 'NONE',  ( -0.000000000000000000, -0.000000000000000000, -1.000000000000000000 ) ) ;
#25 = CIRCLE ( 'NONE', #21, 4.500000000000000000 ) ;
#26 = DIRECTION ( 'NONE',  ( 1.000000000000000000, 0.000000000000000000, 0.000000000000000000 ) ) ;
#27 = AXIS2_PLACEMENT_3D ( 'NONE', #147, #46, #162 ) ;
#28 = VERTEX_POINT ( 'NONE', #103 ) ;
#29 = ORIENTED_EDGE ( 'NONE', *, *, #172, .F. ) ;
#30 = APPROVAL ( #104, 'NEURÈENÝ' ) ;
#31 = EDGE_LOOP ( 'NONE', ( #51, #208 ) ) ;
#32 = CIRCLE ( 'NONE', #27, 7.000000000000000000 ) ;
#33 = DIRECTION ( 'NONE',  ( 1.000000000000000000, 0.000000000000000000, 0.000000000000000000 ) ) ;
#34 = SHAPE_DEFINITION_REPRESENTATION ( #99, #76 ) ;
#35 = CYLINDRICAL_SURFACE ( 'NONE', #184, 7.000000000000000000 ) ;
#36 = APPROVAL_ROLE ( '' ) ;
#37 = DIRECTION ( 'NONE',  ( 1.000000000000000000, 0.000000000000000000, -0.000000000000000000 ) ) ;
#38 = VECTOR ( 'NONE', #136, 1000.000000000000000 ) ;
#39 = PERSON_AND_ORGANIZATION ( #226, #95 ) ;
#40 = CARTESIAN_POINT ( 'NONE',  ( 0.000000000000000000, 0.000000000000000000, 405.0000000000000000 ) ) ;
#41 = APPROVAL_DATE_TIME ( #241, #18 ) ;
#42 = EDGE_CURVE ( 'NONE', #28, #213, #176, .T. ) ;
#43 = CARTESIAN_POINT ( 'NONE',  ( 4.500000000000000000, 5.510910596163088569E-16, 405.0000000000000000 ) ) ;
#44 = AXIS2_PLACEMENT_3D ( 'NONE', #87, #164, #110 ) ;
#45 = CIRCLE ( 'NONE', #119, 4.500000000000000000 ) ;
#46 = DIRECTION ( 'NONE',  ( 0.000000000000000000, 0.000000000000000000, 1.000000000000000000 ) ) ;
#47 = CC_DESIGN_DATE_AND_TIME_ASSIGNMENT ( #160, #100, ( #52 ) ) ;
#48 = DIRECTION ( 'NONE',  ( 1.000000000000000000, 0.000000000000000000, 0.000000000000000000 ) ) ;
#49 = AXIS2_PLACEMENT_3D ( 'NONE', #192, #78, #9 ) ;
#50 = ADVANCED_FACE ( 'NONE', ( #153 ), #12, .T. ) ;
#51 = ORIENTED_EDGE ( 'NONE', *, *, #93, .F. ) ;
#52 = PRODUCT_DEFINITION ( 'NEZNÁMÝ', '', #209, #207 ) ;
#53 = EDGE_LOOP ( 'NONE', ( #128, #94 ) ) ;
#54 = CC_DESIGN_APPROVAL ( #30, ( #52 ) ) ;
#55 = ORIENTED_EDGE ( 'NONE', *, *, #42, .T. ) ;
#56 = PLANE ( 'NONE',  #205 ) ;
#57 = SECURITY_CLASSIFICATION_LEVEL ( 'unclassified' ) ;
#58 = DIRECTION ( 'NONE',  ( 0.000000000000000000, 0.000000000000000000, 1.000000000000000000 ) ) ;
#59 = PERSON_AND_ORGANIZATION ( #226, #95 ) ;
#60 = LINE ( 'NONE', #79, #38 ) ;
#61 = APPROVAL_DATE_TIME ( #238, #224 ) ;
#62 = EDGE_CURVE ( 'NONE', #92, #6, #219, .T. ) ;
#63 = PERSON_AND_ORGANIZATION_ROLE ( 'classification_officer' ) ;
#64 = CARTESIAN_POINT ( 'NONE',  ( 0.000000000000000000, 0.000000000000000000, 5.000000000000000000 ) ) ;
#65 = CARTESIAN_POINT ( 'NONE',  ( -4.500000000000000000, 0.000000000000000000, 5.000000000000000000 ) ) ;
#66 = EDGE_CURVE ( 'NONE', #73, #6, #60, .T. ) ;
#67 = AXIS2_PLACEMENT_3D ( 'NONE', #232, #58, #195 ) ;
#68 = CARTESIAN_POINT ( 'NONE',  ( 0.000000000000000000, 0.000000000000000000, 405.0000000000000000 ) ) ;
#69 = EDGE_CURVE ( 'NONE', #214, #92, #154, .T. ) ;
#70 = AXIS2_PLACEMENT_3D ( 'NONE', #109, #23, #1 ) ;
#71 = ORIENTED_EDGE ( 'NONE', *, *, #11, .T. ) ;
#72 = APPLICATION_CONTEXT ( 'configuration controlled 3d designs of mechanical parts and assemblies' ) ;
#73 = VERTEX_POINT ( 'NONE', #156 ) ;
#74 = CC_DESIGN_PERSON_AND_ORGANIZATION_ASSIGNMENT ( #86, #16, ( #117 ) ) ;
#75 = ORIENTED_EDGE ( 'NONE', *, *, #66, .F. ) ;
#76 = ADVANCED_BREP_SHAPE_REPRESENTATION ( '3e40', ( #142, #170 ), #107 ) ;
#77 = PERSON_AND_ORGANIZATION_ROLE ( 'creator' ) ;
#78 = DIRECTION ( 'NONE',  ( 0.000000000000000000, 0.000000000000000000, 1.000000000000000000 ) ) ;
#79 = CARTESIAN_POINT ( 'NONE',  ( 7.000000000000000000, 8.572527594031473190E-16, 5.000000000000000000 ) ) ;
#80 = PERSON_AND_ORGANIZATION_ROLE ( 'creator' ) ;
#81 = DIRECTION ( 'NONE',  ( 1.000000000000000000, 0.000000000000000000, -0.000000000000000000 ) ) ;
#82 = COORDINATED_UNIVERSAL_TIME_OFFSET ( 1, 0, .AHEAD. ) ;
#83 = FACE_OUTER_BOUND ( 'NONE', #53, .T. ) ;
#84 = VECTOR ( 'NONE', #24, 1000.000000000000000 ) ;
#85 = COORDINATED_UNIVERSAL_TIME_OFFSET ( 1, 0, .AHEAD. ) ;
#86 = PERSON_AND_ORGANIZATION ( #226, #95 ) ;
#87 = CARTESIAN_POINT ( 'NONE',  ( 0.000000000000000000, 0.000000000000000000, 5.000000000000000000 ) ) ;
#88 =( LENGTH_UNIT ( ) NAMED_UNIT ( * ) SI_UNIT ( .MILLI., .METRE. ) );
#89 = MECHANICAL_CONTEXT ( 'NONE', #72, 'mechanical' ) ;
#90 = ADVANCED_FACE ( 'NONE', ( #237 ), #56, .F. ) ;
#91 = CC_DESIGN_SECURITY_CLASSIFICATION ( #168, ( #209 ) ) ;
#92 = VERTEX_POINT ( 'NONE', #105 ) ;
#93 = EDGE_CURVE ( 'NONE', #213, #187, #13, .T. ) ;
#94 = ORIENTED_EDGE ( 'NONE', *, *, #172, .T. ) ;
#95 = ORGANIZATION ( 'NEURÈENÝ', 'NEURÈENÝ', '' ) ;
#96 = ORIENTED_EDGE ( 'NONE', *, *, #111, .T. ) ;
#97 = ORIENTED_EDGE ( 'NONE', *, *, #93, .T. ) ;
#98 = FACE_OUTER_BOUND ( 'NONE', #211, .T. ) ;
#99 = PRODUCT_DEFINITION_SHAPE ( 'NONE', 'NONE',  #52 ) ;
#100 = DATE_TIME_ROLE ( 'creation_date' ) ;
#101 = LOCAL_TIME ( 19, 28, 14.00000000000000000, #193 ) ;
#102 = CARTESIAN_POINT ( 'NONE',  ( -4.500000000000000000, 0.000000000000000000, 405.0000000000000000 ) ) ;
#103 = CARTESIAN_POINT ( 'NONE',  ( -4.500000000000000000, 0.000000000000000000, 405.0000000000000000 ) ) ;
#104 = APPROVAL_STATUS ( 'not_yet_approved' ) ;
#105 = CARTESIAN_POINT ( 'NONE',  ( -7.000000000000000000, 0.000000000000000000, 0.000000000000000000 ) ) ;
#106 = CALENDAR_DATE ( 2022, 7, 7 ) ;
#107 =( GEOMETRIC_REPRESENTATION_CONTEXT ( 3 ) GLOBAL_UNCERTAINTY_ASSIGNED_CONTEXT ( ( #123 ) ) GLOBAL_UNIT_ASSIGNED_CONTEXT ( ( #88, #145, #22 ) ) REPRESENTATION_CONTEXT ( 'NONE', 'WORKASPACE' ) );
#108 = DIRECTION ( 'NONE',  ( -1.000000000000000000, 0.000000000000000000, 0.000000000000000000 ) ) ;
#109 = CARTESIAN_POINT ( 'NONE',  ( 0.000000000000000000, 0.000000000000000000, 405.0000000000000000 ) ) ;
#110 = DIRECTION ( 'NONE',  ( 1.000000000000000000, 0.000000000000000000, 0.000000000000000000 ) ) ;
#111 = EDGE_CURVE ( 'NONE', #28, #249, #158, .T. ) ;
#112 = CLOSED_SHELL ( 'NONE', ( #246, #245, #149, #134, #90, #191, #50 ) ) ;
#113 = EDGE_CURVE ( 'NONE', #187, #213, #45, .T. ) ;
#114 = DIRECTION ( 'NONE',  ( 0.000000000000000000, 0.000000000000000000, 1.000000000000000000 ) ) ;
#115 = PERSON_AND_ORGANIZATION ( #226, #95 ) ;
#116 = CARTESIAN_POINT ( 'NONE',  ( 0.000000000000000000, 0.000000000000000000, 5.000000000000000000 ) ) ;
#117 = PRODUCT ( '3e40', '3e40', '', ( #89 ) ) ;
#118 = PERSON_AND_ORGANIZATION ( #226, #95 ) ;
#119 = AXIS2_PLACEMENT_3D ( 'NONE', #178, #114, #250 ) ;
#120 = DIRECTION ( 'NONE',  ( 1.000000000000000000, 0.000000000000000000, 0.000000000000000000 ) ) ;
#121 = DIRECTION ( 'NONE',  ( 0.000000000000000000, 0.000000000000000000, 1.000000000000000000 ) ) ;
#122 = APPROVAL_STATUS ( 'not_yet_approved' ) ;
#123 = UNCERTAINTY_MEASURE_WITH_UNIT (LENGTH_MEASURE( 1.000000000000000082E-05 ), #88, 'distance_accuracy_value', 'NONE');
#124 = AXIS2_PLACEMENT_3D ( 'NONE', #242, #180, #48 ) ;
#125 = DIRECTION ( 'NONE',  ( -0.000000000000000000, -0.000000000000000000, -1.000000000000000000 ) ) ;
#126 = CARTESIAN_POINT ( 'NONE',  ( 0.000000000000000000, 0.000000000000000000, 0.000000000000000000 ) ) ;
#127 = VECTOR ( 'NONE', #17, 1000.000000000000000 ) ;
#128 = ORIENTED_EDGE ( 'NONE', *, *, #166, .T. ) ;
#129 = ORIENTED_EDGE ( 'NONE', *, *, #62, .T. ) ;
#130 = PRODUCT_RELATED_PRODUCT_CATEGORY ( 'detail', '', ( #117 ) ) ;
#131 = ORIENTED_EDGE ( 'NONE', *, *, #66, .T. ) ;
#132 = ORIENTED_EDGE ( 'NONE', *, *, #62, .F. ) ;
#133 = DIRECTION ( 'NONE',  ( 0.000000000000000000, 0.000000000000000000, 1.000000000000000000 ) ) ;
#134 = ADVANCED_FACE ( 'NONE', ( #255, #83 ), #240, .T. ) ;
#135 = APPROVAL_ROLE ( '' ) ;
#136 = DIRECTION ( 'NONE',  ( -0.000000000000000000, -0.000000000000000000, -1.000000000000000000 ) ) ;
#137 = PERSON_AND_ORGANIZATION_ROLE ( 'design_supplier' ) ;
#138 = LOCAL_TIME ( 19, 28, 14.00000000000000000, #254 ) ;
#139 = CARTESIAN_POINT ( 'NONE',  ( 0.000000000000000000, 0.000000000000000000, 0.000000000000000000 ) ) ;
#140 = DATE_AND_TIME ( #174, #244 ) ;
#141 = DIRECTION ( 'NONE',  ( -0.000000000000000000, -0.000000000000000000, -1.000000000000000000 ) ) ;
#142 = MANIFOLD_SOLID_BREP ( 'Pøidat vysunutím3', #112 ) ;
#143 = CYLINDRICAL_SURFACE ( 'NONE', #182, 4.500000000000000000 ) ;
#144 = CYLINDRICAL_SURFACE ( 'NONE', #200, 7.000000000000000000 ) ;
#145 =( NAMED_UNIT ( * ) PLANE_ANGLE_UNIT ( ) SI_UNIT ( $, .RADIAN. ) );
#146 = CC_DESIGN_PERSON_AND_ORGANIZATION_ASSIGNMENT ( #118, #137, ( #209 ) ) ;
#147 = CARTESIAN_POINT ( 'NONE',  ( 0.000000000000000000, 0.000000000000000000, 5.000000000000000000 ) ) ;
#148 = AXIS2_PLACEMENT_3D ( 'NONE', #40, #175, #81 ) ;
#149 = ADVANCED_FACE ( 'NONE', ( #98 ), #35, .T. ) ;
#150 = EDGE_LOOP ( 'NONE', ( #96, #71 ) ) ;
#151 = EDGE_LOOP ( 'NONE', ( #190, #169, #183, #7 ) ) ;
#152 = ORIENTED_EDGE ( 'NONE', *, *, #227, .F. ) ;
#153 = FACE_OUTER_BOUND ( 'NONE', #150, .T. ) ;
#154 = LINE ( 'NONE', #217, #8 ) ;
#155 = CALENDAR_DATE ( 2022, 7, 7 ) ;
#156 = CARTESIAN_POINT ( 'NONE',  ( 7.000000000000000000, 8.572527594031473190E-16, 5.000000000000000000 ) ) ;
#157 = CALENDAR_DATE ( 2022, 7, 7 ) ;
#158 = CIRCLE ( 'NONE', #189, 4.500000000000000000 ) ;
#159 = CARTESIAN_POINT ( 'NONE',  ( 0.000000000000000000, 0.000000000000000000, 5.000000000000000000 ) ) ;
#160 = DATE_AND_TIME ( #10, #101 ) ;
#161 = CARTESIAN_POINT ( 'NONE',  ( 4.500000000000000000, 5.510910596163088569E-16, 5.000000000000000000 ) ) ;
#162 = DIRECTION ( 'NONE',  ( 1.000000000000000000, 0.000000000000000000, 0.000000000000000000 ) ) ;
#163 = CIRCLE ( 'NONE', #124, 7.000000000000000000 ) ;
#164 = DIRECTION ( 'NONE',  ( 0.000000000000000000, 0.000000000000000000, 1.000000000000000000 ) ) ;
#165 = CC_DESIGN_PERSON_AND_ORGANIZATION_ASSIGNMENT ( #39, #63, ( #168 ) ) ;
#166 = EDGE_CURVE ( 'NONE', #214, #73, #251, .T. ) ;
#167 = APPROVAL_PERSON_ORGANIZATION ( #177, #30, #135 ) ;
#168 = SECURITY_CLASSIFICATION ( '', '', #57 ) ;
#169 = ORIENTED_EDGE ( 'NONE', *, *, #186, .T. ) ;
#170 = AXIS2_PLACEMENT_3D ( 'NONE', #126, #206, #26 ) ;
#171 = EDGE_LOOP ( 'NONE', ( #229, #247, #55, #97 ) ) ;
#172 = EDGE_CURVE ( 'NONE', #73, #214, #32, .T. ) ;
#173 = DIRECTION ( 'NONE',  ( 0.000000000000000000, 0.000000000000000000, 1.000000000000000000 ) ) ;
#174 = CALENDAR_DATE ( 2022, 7, 7 ) ;
#175 = DIRECTION ( 'NONE',  ( 0.000000000000000000, 0.000000000000000000, 1.000000000000000000 ) ) ;
#176 = LINE ( 'NONE', #102, #127 ) ;
#177 = PERSON_AND_ORGANIZATION ( #226, #95 ) ;
#178 = CARTESIAN_POINT ( 'NONE',  ( 0.000000000000000000, 0.000000000000000000, 5.000000000000000000 ) ) ;
#179 = FACE_OUTER_BOUND ( 'NONE', #228, .T. ) ;
#180 = DIRECTION ( 'NONE',  ( 0.000000000000000000, 0.000000000000000000, 1.000000000000000000 ) ) ;
#181 = DIRECTION ( 'NONE',  ( -0.000000000000000000, -0.000000000000000000, -1.000000000000000000 ) ) ;
#182 = AXIS2_PLACEMENT_3D ( 'NONE', #68, #181, #222 ) ;
#183 = ORIENTED_EDGE ( 'NONE', *, *, #113, .T. ) ;
#184 = AXIS2_PLACEMENT_3D ( 'NONE', #116, #141, #5 ) ;
#185 = LOCAL_TIME ( 19, 28, 14.00000000000000000, #85 ) ;
#186 = EDGE_CURVE ( 'NONE', #249, #187, #243, .T. ) ;
#187 = VERTEX_POINT ( 'NONE', #161 ) ;
#188 = EDGE_LOOP ( 'NONE', ( #132, #152 ) ) ;
#189 = AXIS2_PLACEMENT_3D ( 'NONE', #215, #121, #235 ) ;
#190 = ORIENTED_EDGE ( 'NONE', *, *, #11, .F. ) ;
#191 = ADVANCED_FACE ( 'NONE', ( #203 ), #223, .T. ) ;
#192 = CARTESIAN_POINT ( 'NONE',  ( 0.000000000000000000, 0.000000000000000000, 5.000000000000000000 ) ) ;
#193 = COORDINATED_UNIVERSAL_TIME_OFFSET ( 1, 0, .AHEAD. ) ;
#194 = CARTESIAN_POINT ( 'NONE',  ( 0.000000000000000000, 0.000000000000000000, 405.0000000000000000 ) ) ;
#195 = DIRECTION ( 'NONE',  ( 1.000000000000000000, 0.000000000000000000, 0.000000000000000000 ) ) ;
#196 = APPLICATION_PROTOCOL_DEFINITION ( 'international standard', 'config_control_design', 1994, #234 ) ;
#197 = ORIENTED_EDGE ( 'NONE', *, *, #227, .T. ) ;
#198 = CC_DESIGN_DATE_AND_TIME_ASSIGNMENT ( #140, #218, ( #168 ) ) ;
#199 = CARTESIAN_POINT ( 'NONE',  ( -7.000000000000000000, 0.000000000000000000, 5.000000000000000000 ) ) ;
#200 = AXIS2_PLACEMENT_3D ( 'NONE', #64, #125, #108 ) ;
#201 = LOCAL_TIME ( 19, 28, 14.00000000000000000, #82 ) ;
#202 = CARTESIAN_POINT ( 'NONE',  ( 4.500000000000000000, 5.510910596163088569E-16, 405.0000000000000000 ) ) ;
#203 = FACE_OUTER_BOUND ( 'NONE', #171, .T. ) ;
#204 = FACE_OUTER_BOUND ( 'NONE', #151, .T. ) ;
#205 = AXIS2_PLACEMENT_3D ( 'NONE', #139, #220, #37 ) ;
#206 = DIRECTION ( 'NONE',  ( 0.000000000000000000, 0.000000000000000000, 1.000000000000000000 ) ) ;
#207 = DESIGN_CONTEXT ( 'detailed design', #234, 'design' ) ;
#208 = ORIENTED_EDGE ( 'NONE', *, *, #113, .F. ) ;
#209 = PRODUCT_DEFINITION_FORMATION_WITH_SPECIFIED_SOURCE ( 'LIBOVOLNÝ', '', #117, .NOT_KNOWN. ) ;
#210 = CC_DESIGN_PERSON_AND_ORGANIZATION_ASSIGNMENT ( #19, #80, ( #209 ) ) ;
#211 = EDGE_LOOP ( 'NONE', ( #75, #4, #212, #129 ) ) ;
#212 = ORIENTED_EDGE ( 'NONE', *, *, #69, .T. ) ;
#213 = VERTEX_POINT ( 'NONE', #65 ) ;
#214 = VERTEX_POINT ( 'NONE', #199 ) ;
#215 = CARTESIAN_POINT ( 'NONE',  ( 0.000000000000000000, 0.000000000000000000, 405.0000000000000000 ) ) ;
#216 = DATE_AND_TIME ( #155, #138 ) ;
#217 = CARTESIAN_POINT ( 'NONE',  ( -7.000000000000000000, 0.000000000000000000, 5.000000000000000000 ) ) ;
#218 = DATE_TIME_ROLE ( 'classification_date' ) ;
#219 = CIRCLE ( 'NONE', #67, 7.000000000000000000 ) ;
#220 = DIRECTION ( 'NONE',  ( 0.000000000000000000, 0.000000000000000000, 1.000000000000000000 ) ) ;
#221 = APPROVAL_ROLE ( '' ) ;
#222 = DIRECTION ( 'NONE',  ( -1.000000000000000000, 0.000000000000000000, 0.000000000000000000 ) ) ;
#223 = CYLINDRICAL_SURFACE ( 'NONE', #70, 4.500000000000000000 ) ;
#224 = APPROVAL ( #231, 'NEURÈENÝ' ) ;
#225 = AXIS2_PLACEMENT_3D ( 'NONE', #159, #133, #120 ) ;
#226 = PERSON ( 'NEURÈENÝ', 'NEURÈENÝ', 'NEURÈENÝ', ('NEURÈENÝ'), ('NEURÈENÝ'), ('NEURÈENÝ') ) ;
#227 = EDGE_CURVE ( 'NONE', #6, #92, #163, .T. ) ;
#228 = EDGE_LOOP ( 'NONE', ( #29, #131, #197, #230 ) ) ;
#229 = ORIENTED_EDGE ( 'NONE', *, *, #186, .F. ) ;
#230 = ORIENTED_EDGE ( 'NONE', *, *, #69, .F. ) ;
#231 = APPROVAL_STATUS ( 'not_yet_approved' ) ;
#232 = CARTESIAN_POINT ( 'NONE',  ( 0.000000000000000000, 0.000000000000000000, 0.000000000000000000 ) ) ;
#233 = PERSON_AND_ORGANIZATION ( #226, #95 ) ;
#234 = APPLICATION_CONTEXT ( 'configuration controlled 3d designs of mechanical parts and assemblies' ) ;
#235 = DIRECTION ( 'NONE',  ( 1.000000000000000000, 0.000000000000000000, 0.000000000000000000 ) ) ;
#236 = APPROVAL_DATE_TIME ( #216, #30 ) ;
#237 = FACE_OUTER_BOUND ( 'NONE', #188, .T. ) ;
#238 = DATE_AND_TIME ( #157, #201 ) ;
#239 = CC_DESIGN_APPROVAL ( #18, ( #168 ) ) ;
#240 = PLANE ( 'NONE',  #49 ) ;
#241 = DATE_AND_TIME ( #106, #185 ) ;
#242 = CARTESIAN_POINT ( 'NONE',  ( 0.000000000000000000, 0.000000000000000000, 0.000000000000000000 ) ) ;
#243 = LINE ( 'NONE', #202, #84 ) ;
#244 = LOCAL_TIME ( 19, 28, 14.00000000000000000, #14 ) ;
#245 = ADVANCED_FACE ( 'NONE', ( #179 ), #144, .T. ) ;
#246 = ADVANCED_FACE ( 'NONE', ( #204 ), #143, .T. ) ;
#247 = ORIENTED_EDGE ( 'NONE', *, *, #111, .F. ) ;
#248 = CC_DESIGN_APPROVAL ( #224, ( #209 ) ) ;
#249 = VERTEX_POINT ( 'NONE', #43 ) ;
#250 = DIRECTION ( 'NONE',  ( 1.000000000000000000, 0.000000000000000000, 0.000000000000000000 ) ) ;
#251 = CIRCLE ( 'NONE', #44, 7.000000000000000000 ) ;
#252 = APPROVAL_PERSON_ORGANIZATION ( #115, #18, #221 ) ;
#253 = CARTESIAN_POINT ( 'NONE',  ( 7.000000000000000000, 8.572527594031473190E-16, 0.000000000000000000 ) ) ;
#254 = COORDINATED_UNIVERSAL_TIME_OFFSET ( 1, 0, .AHEAD. ) ;
#255 = FACE_BOUND ( 'NONE', #31, .T. ) ;
ENDSEC;
END-ISO-10303-21;
