ISO-10303-21;
HEADER;
FILE_DESCRIPTION (( 'STEP AP203' ),
    '1' );
FILE_NAME ('69fa.STEP',
    '2022-07-07T17:31:50',
    ( '' ),
    ( '' ),
    'SwSTEP 2.0',
    'SolidWorks 2019',
    '' );
FILE_SCHEMA (( 'CONFIG_CONTROL_DESIGN' ));
ENDSEC;

DATA;
#1 = APPLICATION_CONTEXT ( 'configuration controlled 3d designs of mechanical parts and assemblies' ) ;
#2 = AXIS2_PLACEMENT_3D ( 'NONE', #209, #244, #150 ) ;
#3 = DIRECTION ( 'NONE',  ( 0.000000000000000000, 0.000000000000000000, 1.000000000000000000 ) ) ;
#4 = ORIENTED_EDGE ( 'NONE', *, *, #19, .F. ) ;
#5 = AXIS2_PLACEMENT_3D ( 'NONE', #163, #143, #43 ) ;
#6 = CARTESIAN_POINT ( 'NONE',  ( 0.000000000000000000, 0.000000000000000000, 5.000000000000000000 ) ) ;
#7 = CARTESIAN_POINT ( 'NONE',  ( 0.000000000000000000, 0.000000000000000000, 255.0000000000000000 ) ) ;
#8 = FACE_OUTER_BOUND ( 'NONE', #121, .T. ) ;
#9 = ORIENTED_EDGE ( 'NONE', *, *, #147, .F. ) ;
#10 = DIRECTION ( 'NONE',  ( 1.000000000000000000, 0.000000000000000000, 0.000000000000000000 ) ) ;
#11 = EDGE_CURVE ( 'NONE', #223, #190, #159, .T. ) ;
#12 = PERSON_AND_ORGANIZATION_ROLE ( 'creator' ) ;
#13 = PERSON_AND_ORGANIZATION ( #175, #38 ) ;
#14 = APPROVAL_STATUS ( 'not_yet_approved' ) ;
#15 = PERSON_AND_ORGANIZATION_ROLE ( 'design_supplier' ) ;
#16 = PERSON_AND_ORGANIZATION ( #175, #38 ) ;
#17 = ADVANCED_FACE ( 'NONE', ( #18 ), #84, .T. ) ;
#18 = FACE_OUTER_BOUND ( 'NONE', #68, .T. ) ;
#19 = EDGE_CURVE ( 'NONE', #190, #122, #213, .T. ) ;
#20 = ORIENTED_EDGE ( 'NONE', *, *, #11, .F. ) ;
#21 = CARTESIAN_POINT ( 'NONE',  ( 0.000000000000000000, 0.000000000000000000, 255.0000000000000000 ) ) ;
#22 = ADVANCED_FACE ( 'NONE', ( #238, #179 ), #254, .T. ) ;
#23 = DIRECTION ( 'NONE',  ( -0.000000000000000000, -0.000000000000000000, -1.000000000000000000 ) ) ;
#24 = EDGE_LOOP ( 'NONE', ( #61, #187, #199, #240 ) ) ;
#25 = APPLICATION_CONTEXT ( 'configuration controlled 3d designs of mechanical parts and assemblies' ) ;
#26 = CARTESIAN_POINT ( 'NONE',  ( 7.000000000000000000, 8.572527594031473190E-16, 5.000000000000000000 ) ) ;
#27 = VERTEX_POINT ( 'NONE', #161 ) ;
#28 = SECURITY_CLASSIFICATION ( '', '', #232 ) ;
#29 = DIRECTION ( 'NONE',  ( -0.000000000000000000, -0.000000000000000000, -1.000000000000000000 ) ) ;
#30 = DIRECTION ( 'NONE',  ( 1.000000000000000000, 0.000000000000000000, 0.000000000000000000 ) ) ;
#31 = PERSON_AND_ORGANIZATION ( #175, #38 ) ;
#32 = PRODUCT_DEFINITION_SHAPE ( 'NONE', 'NONE',  #178 ) ;
#33 =( LENGTH_UNIT ( ) NAMED_UNIT ( * ) SI_UNIT ( .MILLI., .METRE. ) );
#34 = COORDINATED_UNIVERSAL_TIME_OFFSET ( 1, 0, .AHEAD. ) ;
#35 = APPROVAL ( #212, 'NEURÈENÝ' ) ;
#36 = PERSON_AND_ORGANIZATION ( #175, #38 ) ;
#37 = PERSON_AND_ORGANIZATION_ROLE ( 'creator' ) ;
#38 = ORGANIZATION ( 'NEURÈENÝ', 'NEURÈENÝ', '' ) ;
#39 = DATE_TIME_ROLE ( 'classification_date' ) ;
#40 = DIRECTION ( 'NONE',  ( -1.000000000000000000, 0.000000000000000000, 0.000000000000000000 ) ) ;
#41 = ADVANCED_FACE ( 'NONE', ( #47 ), #45, .T. ) ;
#42 = ORIENTED_EDGE ( 'NONE', *, *, #153, .T. ) ;
#43 = DIRECTION ( 'NONE',  ( 1.000000000000000000, 0.000000000000000000, 0.000000000000000000 ) ) ;
#44 = APPROVAL_PERSON_ORGANIZATION ( #116, #127, #173 ) ;
#45 = CYLINDRICAL_SURFACE ( 'NONE', #128, 7.000000000000000000 ) ;
#46 = EDGE_LOOP ( 'NONE', ( #142, #207 ) ) ;
#47 = FACE_OUTER_BOUND ( 'NONE', #24, .T. ) ;
#48 = EDGE_LOOP ( 'NONE', ( #79, #4 ) ) ;
#49 = DIRECTION ( 'NONE',  ( 0.000000000000000000, 0.000000000000000000, 1.000000000000000000 ) ) ;
#50 = APPROVAL_DATE_TIME ( #71, #127 ) ;
#51 = DIRECTION ( 'NONE',  ( -0.000000000000000000, -0.000000000000000000, -1.000000000000000000 ) ) ;
#52 = CC_DESIGN_APPROVAL ( #127, ( #235 ) ) ;
#53 = EDGE_CURVE ( 'NONE', #122, #190, #101, .T. ) ;
#54 = CALENDAR_DATE ( 2022, 7, 7 ) ;
#55 = ADVANCED_BREP_SHAPE_REPRESENTATION ( '69fa', ( #219, #2 ), #204 ) ;
#56 = LOCAL_TIME ( 19, 31, 50.00000000000000000, #196 ) ;
#57 = DATE_AND_TIME ( #228, #56 ) ;
#58 = ORIENTED_EDGE ( 'NONE', *, *, #230, .T. ) ;
#59 = VECTOR ( 'NONE', #51, 1000.000000000000000 ) ;
#60 = DESIGN_CONTEXT ( 'detailed design', #25, 'design' ) ;
#61 = ORIENTED_EDGE ( 'NONE', *, *, #153, .F. ) ;
#62 = ADVANCED_FACE ( 'NONE', ( #236 ), #64, .F. ) ;
#63 = AXIS2_PLACEMENT_3D ( 'NONE', #72, #248, #229 ) ;
#64 = PLANE ( 'NONE',  #242 ) ;
#65 = DIRECTION ( 'NONE',  ( 0.000000000000000000, 0.000000000000000000, 1.000000000000000000 ) ) ;
#66 = ORIENTED_EDGE ( 'NONE', *, *, #255, .T. ) ;
#67 = PLANE ( 'NONE',  #251 ) ;
#68 = EDGE_LOOP ( 'NONE', ( #109, #86, #168, #137 ) ) ;
#69 = DIRECTION ( 'NONE',  ( 0.000000000000000000, 0.000000000000000000, 1.000000000000000000 ) ) ;
#70 = CARTESIAN_POINT ( 'NONE',  ( 0.000000000000000000, 0.000000000000000000, 0.000000000000000000 ) ) ;
#71 = DATE_AND_TIME ( #171, #250 ) ;
#72 = CARTESIAN_POINT ( 'NONE',  ( 0.000000000000000000, 0.000000000000000000, 5.000000000000000000 ) ) ;
#73 = DATE_AND_TIME ( #246, #140 ) ;
#74 = CARTESIAN_POINT ( 'NONE',  ( 0.000000000000000000, 0.000000000000000000, 5.000000000000000000 ) ) ;
#75 = CC_DESIGN_DATE_AND_TIME_ASSIGNMENT ( #73, #194, ( #178 ) ) ;
#76 = PERSON_AND_ORGANIZATION ( #175, #38 ) ;
#77 = ORIENTED_EDGE ( 'NONE', *, *, #255, .F. ) ;
#78 = ADVANCED_FACE ( 'NONE', ( #226 ), #67, .T. ) ;
#79 = ORIENTED_EDGE ( 'NONE', *, *, #53, .F. ) ;
#80 = CIRCLE ( 'NONE', #218, 7.000000000000000000 ) ;
#81 = PRODUCT_RELATED_PRODUCT_CATEGORY ( 'detail', '', ( #134 ) ) ;
#82 = CIRCLE ( 'NONE', #247, 4.099999999999999645 ) ;
#83 = CARTESIAN_POINT ( 'NONE',  ( 4.099999999999999645, 5.021051876504147385E-16, 255.0000000000000000 ) ) ;
#84 = CYLINDRICAL_SURFACE ( 'NONE', #120, 4.099999999999999645 ) ;
#85 = DIRECTION ( 'NONE',  ( -0.000000000000000000, -0.000000000000000000, -1.000000000000000000 ) ) ;
#86 = ORIENTED_EDGE ( 'NONE', *, *, #156, .T. ) ;
#87 = DIRECTION ( 'NONE',  ( -0.000000000000000000, -0.000000000000000000, -1.000000000000000000 ) ) ;
#88 = ORIENTED_EDGE ( 'NONE', *, *, #182, .T. ) ;
#89 = CARTESIAN_POINT ( 'NONE',  ( -4.099999999999999645, 0.000000000000000000, 5.000000000000000000 ) ) ;
#90 = COORDINATED_UNIVERSAL_TIME_OFFSET ( 1, 0, .AHEAD. ) ;
#91 = AXIS2_PLACEMENT_3D ( 'NONE', #107, #164, #99 ) ;
#92 = CYLINDRICAL_SURFACE ( 'NONE', #63, 7.000000000000000000 ) ;
#93 = APPROVAL_PERSON_ORGANIZATION ( #36, #35, #115 ) ;
#94 = COORDINATED_UNIVERSAL_TIME_OFFSET ( 1, 0, .AHEAD. ) ;
#95 = DATE_AND_TIME ( #149, #157 ) ;
#96 = COORDINATED_UNIVERSAL_TIME_OFFSET ( 1, 0, .AHEAD. ) ;
#97 = EDGE_CURVE ( 'NONE', #27, #126, #188, .T. ) ;
#98 = CC_DESIGN_APPROVAL ( #174, ( #28 ) ) ;
#99 = DIRECTION ( 'NONE',  ( 1.000000000000000000, 0.000000000000000000, 0.000000000000000000 ) ) ;
#100 = ORIENTED_EDGE ( 'NONE', *, *, #156, .F. ) ;
#101 = CIRCLE ( 'NONE', #195, 7.000000000000000000 ) ;
#102 = UNCERTAINTY_MEASURE_WITH_UNIT (LENGTH_MEASURE( 1.000000000000000082E-05 ), #33, 'distance_accuracy_value', 'NONE');
#103 = EDGE_CURVE ( 'NONE', #136, #27, #138, .T. ) ;
#104 = CARTESIAN_POINT ( 'NONE',  ( 4.099999999999999645, 5.021051876504147385E-16, 255.0000000000000000 ) ) ;
#105 = CIRCLE ( 'NONE', #5, 4.099999999999999645 ) ;
#106 = LINE ( 'NONE', #186, #59 ) ;
#107 = CARTESIAN_POINT ( 'NONE',  ( 0.000000000000000000, 0.000000000000000000, 0.000000000000000000 ) ) ;
#108 = DIRECTION ( 'NONE',  ( 0.000000000000000000, 0.000000000000000000, 1.000000000000000000 ) ) ;
#109 = ORIENTED_EDGE ( 'NONE', *, *, #103, .F. ) ;
#110 = CARTESIAN_POINT ( 'NONE',  ( -7.000000000000000000, 0.000000000000000000, 5.000000000000000000 ) ) ;
#111 = FACE_OUTER_BOUND ( 'NONE', #234, .T. ) ;
#112 = DIRECTION ( 'NONE',  ( 0.000000000000000000, 0.000000000000000000, 1.000000000000000000 ) ) ;
#113 = AXIS2_PLACEMENT_3D ( 'NONE', #6, #3, #141 ) ;
#114 = ADVANCED_FACE ( 'NONE', ( #8 ), #167, .T. ) ;
#115 = APPROVAL_ROLE ( '' ) ;
#116 = PERSON_AND_ORGANIZATION ( #175, #38 ) ;
#117 = PERSON_AND_ORGANIZATION ( #175, #38 ) ;
#118 = APPROVAL_DATE_TIME ( #176, #174 ) ;
#119 = APPROVAL_PERSON_ORGANIZATION ( #117, #174, #214 ) ;
#120 = AXIS2_PLACEMENT_3D ( 'NONE', #7, #215, #40 ) ;
#121 = EDGE_LOOP ( 'NONE', ( #100, #200, #216, #66 ) ) ;
#122 = VERTEX_POINT ( 'NONE', #239 ) ;
#123 = AXIS2_PLACEMENT_3D ( 'NONE', #160, #129, #222 ) ;
#124 = DIRECTION ( 'NONE',  ( 0.000000000000000000, 0.000000000000000000, 1.000000000000000000 ) ) ;
#125 = CARTESIAN_POINT ( 'NONE',  ( 0.000000000000000000, 0.000000000000000000, 0.000000000000000000 ) ) ;
#126 = VERTEX_POINT ( 'NONE', #89 ) ;
#127 = APPROVAL ( #14, 'NEURÈENÝ' ) ;
#128 = AXIS2_PLACEMENT_3D ( 'NONE', #139, #85, #131 ) ;
#129 = DIRECTION ( 'NONE',  ( 0.000000000000000000, 0.000000000000000000, 1.000000000000000000 ) ) ;
#130 = ORIENTED_EDGE ( 'NONE', *, *, #182, .F. ) ;
#131 = DIRECTION ( 'NONE',  ( -1.000000000000000000, 0.000000000000000000, 0.000000000000000000 ) ) ;
#132 = CC_DESIGN_PERSON_AND_ORGANIZATION_ASSIGNMENT ( #16, #152, ( #28 ) ) ;
#133 =( NAMED_UNIT ( * ) SI_UNIT ( $, .STERADIAN. ) SOLID_ANGLE_UNIT ( ) );
#134 = PRODUCT ( '69fa', '69fa', '', ( #245 ) ) ;
#135 = APPLICATION_PROTOCOL_DEFINITION ( 'international standard', 'config_control_design', 1994, #25 ) ;
#136 = VERTEX_POINT ( 'NONE', #83 ) ;
#137 = ORIENTED_EDGE ( 'NONE', *, *, #97, .F. ) ;
#138 = CIRCLE ( 'NONE', #231, 4.099999999999999645 ) ;
#139 = CARTESIAN_POINT ( 'NONE',  ( 0.000000000000000000, 0.000000000000000000, 5.000000000000000000 ) ) ;
#140 = LOCAL_TIME ( 19, 31, 50.00000000000000000, #94 ) ;
#141 = DIRECTION ( 'NONE',  ( 1.000000000000000000, 0.000000000000000000, 0.000000000000000000 ) ) ;
#142 = ORIENTED_EDGE ( 'NONE', *, *, #169, .T. ) ;
#143 = DIRECTION ( 'NONE',  ( 0.000000000000000000, 0.000000000000000000, 1.000000000000000000 ) ) ;
#144 = ORIENTED_EDGE ( 'NONE', *, *, #53, .T. ) ;
#145 = VECTOR ( 'NONE', #29, 1000.000000000000000 ) ;
#146 = CARTESIAN_POINT ( 'NONE',  ( 7.000000000000000000, 8.572527594031473190E-16, 0.000000000000000000 ) ) ;
#147 = EDGE_CURVE ( 'NONE', #225, #126, #105, .T. ) ;
#148 = CARTESIAN_POINT ( 'NONE',  ( 0.000000000000000000, 0.000000000000000000, 255.0000000000000000 ) ) ;
#149 = CALENDAR_DATE ( 2022, 7, 7 ) ;
#150 = DIRECTION ( 'NONE',  ( 1.000000000000000000, 0.000000000000000000, 0.000000000000000000 ) ) ;
#151 =( NAMED_UNIT ( * ) PLANE_ANGLE_UNIT ( ) SI_UNIT ( $, .RADIAN. ) );
#152 = PERSON_AND_ORGANIZATION_ROLE ( 'classification_officer' ) ;
#153 = EDGE_CURVE ( 'NONE', #223, #203, #80, .T. ) ;
#154 = PERSON_AND_ORGANIZATION ( #175, #38 ) ;
#155 = CIRCLE ( 'NONE', #180, 4.099999999999999645 ) ;
#156 = EDGE_CURVE ( 'NONE', #136, #225, #206, .T. ) ;
#157 = LOCAL_TIME ( 19, 31, 50.00000000000000000, #34 ) ;
#158 = APPROVAL_STATUS ( 'not_yet_approved' ) ;
#159 = LINE ( 'NONE', #184, #227 ) ;
#160 = CARTESIAN_POINT ( 'NONE',  ( 0.000000000000000000, 0.000000000000000000, 5.000000000000000000 ) ) ;
#161 = CARTESIAN_POINT ( 'NONE',  ( -4.099999999999999645, 0.000000000000000000, 255.0000000000000000 ) ) ;
#162 = VECTOR ( 'NONE', #23, 1000.000000000000000 ) ;
#163 = CARTESIAN_POINT ( 'NONE',  ( 0.000000000000000000, 0.000000000000000000, 5.000000000000000000 ) ) ;
#164 = DIRECTION ( 'NONE',  ( 0.000000000000000000, 0.000000000000000000, 1.000000000000000000 ) ) ;
#165 = DIRECTION ( 'NONE',  ( 1.000000000000000000, 0.000000000000000000, 0.000000000000000000 ) ) ;
#166 = EDGE_LOOP ( 'NONE', ( #77, #9 ) ) ;
#167 = CYLINDRICAL_SURFACE ( 'NONE', #198, 4.099999999999999645 ) ;
#168 = ORIENTED_EDGE ( 'NONE', *, *, #147, .T. ) ;
#169 = EDGE_CURVE ( 'NONE', #27, #136, #155, .T. ) ;
#170 = DIRECTION ( 'NONE',  ( 1.000000000000000000, 0.000000000000000000, -0.000000000000000000 ) ) ;
#171 = CALENDAR_DATE ( 2022, 7, 7 ) ;
#172 = CIRCLE ( 'NONE', #113, 7.000000000000000000 ) ;
#173 = APPROVAL_ROLE ( '' ) ;
#174 = APPROVAL ( #158, 'NEURÈENÝ' ) ;
#175 = PERSON ( 'NEURÈENÝ', 'NEURÈENÝ', 'NEURÈENÝ', ('NEURÈENÝ'), ('NEURÈENÝ'), ('NEURÈENÝ') ) ;
#176 = DATE_AND_TIME ( #54, #181 ) ;
#177 = SHAPE_DEFINITION_REPRESENTATION ( #32, #55 ) ;
#178 = PRODUCT_DEFINITION ( 'NEZNÁMÝ', '', #235, #60 ) ;
#179 = FACE_OUTER_BOUND ( 'NONE', #253, .T. ) ;
#180 = AXIS2_PLACEMENT_3D ( 'NONE', #183, #224, #243 ) ;
#181 = LOCAL_TIME ( 19, 31, 50.00000000000000000, #96 ) ;
#182 = EDGE_CURVE ( 'NONE', #203, #223, #172, .T. ) ;
#183 = CARTESIAN_POINT ( 'NONE',  ( 0.000000000000000000, 0.000000000000000000, 255.0000000000000000 ) ) ;
#184 = CARTESIAN_POINT ( 'NONE',  ( 7.000000000000000000, 8.572527594031473190E-16, 5.000000000000000000 ) ) ;
#185 = CLOSED_SHELL ( 'NONE', ( #17, #41, #249, #22, #62, #114, #78 ) ) ;
#186 = CARTESIAN_POINT ( 'NONE',  ( -7.000000000000000000, 0.000000000000000000, 5.000000000000000000 ) ) ;
#187 = ORIENTED_EDGE ( 'NONE', *, *, #11, .T. ) ;
#188 = LINE ( 'NONE', #208, #162 ) ;
#189 = CC_DESIGN_DATE_AND_TIME_ASSIGNMENT ( #57, #39, ( #28 ) ) ;
#190 = VERTEX_POINT ( 'NONE', #146 ) ;
#191 = CARTESIAN_POINT ( 'NONE',  ( 0.000000000000000000, 0.000000000000000000, 255.0000000000000000 ) ) ;
#192 = APPLICATION_PROTOCOL_DEFINITION ( 'international standard', 'config_control_design', 1994, #1 ) ;
#193 = APPROVAL_DATE_TIME ( #95, #35 ) ;
#194 = DATE_TIME_ROLE ( 'creation_date' ) ;
#195 = AXIS2_PLACEMENT_3D ( 'NONE', #70, #108, #165 ) ;
#196 = COORDINATED_UNIVERSAL_TIME_OFFSET ( 1, 0, .AHEAD. ) ;
#197 = CC_DESIGN_PERSON_AND_ORGANIZATION_ASSIGNMENT ( #31, #210, ( #134 ) ) ;
#198 = AXIS2_PLACEMENT_3D ( 'NONE', #148, #87, #202 ) ;
#199 = ORIENTED_EDGE ( 'NONE', *, *, #19, .T. ) ;
#200 = ORIENTED_EDGE ( 'NONE', *, *, #169, .F. ) ;
#201 = DIRECTION ( 'NONE',  ( 1.000000000000000000, 0.000000000000000000, 0.000000000000000000 ) ) ;
#202 = DIRECTION ( 'NONE',  ( -1.000000000000000000, 0.000000000000000000, 0.000000000000000000 ) ) ;
#203 = VERTEX_POINT ( 'NONE', #110 ) ;
#204 =( GEOMETRIC_REPRESENTATION_CONTEXT ( 3 ) GLOBAL_UNCERTAINTY_ASSIGNED_CONTEXT ( ( #102 ) ) GLOBAL_UNIT_ASSIGNED_CONTEXT ( ( #33, #151, #133 ) ) REPRESENTATION_CONTEXT ( 'NONE', 'WORKASPACE' ) );
#205 = CC_DESIGN_PERSON_AND_ORGANIZATION_ASSIGNMENT ( #13, #12, ( #178 ) ) ;
#206 = LINE ( 'NONE', #104, #145 ) ;
#207 = ORIENTED_EDGE ( 'NONE', *, *, #103, .T. ) ;
#208 = CARTESIAN_POINT ( 'NONE',  ( -4.099999999999999645, 0.000000000000000000, 255.0000000000000000 ) ) ;
#209 = CARTESIAN_POINT ( 'NONE',  ( 0.000000000000000000, 0.000000000000000000, 0.000000000000000000 ) ) ;
#210 = PERSON_AND_ORGANIZATION_ROLE ( 'design_owner' ) ;
#211 = CC_DESIGN_PERSON_AND_ORGANIZATION_ASSIGNMENT ( #76, #37, ( #235 ) ) ;
#212 = APPROVAL_STATUS ( 'not_yet_approved' ) ;
#213 = CIRCLE ( 'NONE', #91, 7.000000000000000000 ) ;
#214 = APPROVAL_ROLE ( '' ) ;
#215 = DIRECTION ( 'NONE',  ( -0.000000000000000000, -0.000000000000000000, -1.000000000000000000 ) ) ;
#216 = ORIENTED_EDGE ( 'NONE', *, *, #97, .T. ) ;
#217 = CC_DESIGN_PERSON_AND_ORGANIZATION_ASSIGNMENT ( #154, #15, ( #235 ) ) ;
#218 = AXIS2_PLACEMENT_3D ( 'NONE', #241, #124, #201 ) ;
#219 = MANIFOLD_SOLID_BREP ( 'Pøidat vysunutím3', #185 ) ;
#220 = DIRECTION ( 'NONE',  ( 1.000000000000000000, 0.000000000000000000, -0.000000000000000000 ) ) ;
#221 = CC_DESIGN_SECURITY_CLASSIFICATION ( #28, ( #235 ) ) ;
#222 = DIRECTION ( 'NONE',  ( 1.000000000000000000, 0.000000000000000000, -0.000000000000000000 ) ) ;
#223 = VERTEX_POINT ( 'NONE', #26 ) ;
#224 = DIRECTION ( 'NONE',  ( 0.000000000000000000, 0.000000000000000000, 1.000000000000000000 ) ) ;
#225 = VERTEX_POINT ( 'NONE', #237 ) ;
#226 = FACE_OUTER_BOUND ( 'NONE', #46, .T. ) ;
#227 = VECTOR ( 'NONE', #233, 1000.000000000000000 ) ;
#228 = CALENDAR_DATE ( 2022, 7, 7 ) ;
#229 = DIRECTION ( 'NONE',  ( -1.000000000000000000, 0.000000000000000000, 0.000000000000000000 ) ) ;
#230 = EDGE_CURVE ( 'NONE', #203, #122, #106, .T. ) ;
#231 = AXIS2_PLACEMENT_3D ( 'NONE', #21, #65, #10 ) ;
#232 = SECURITY_CLASSIFICATION_LEVEL ( 'unclassified' ) ;
#233 = DIRECTION ( 'NONE',  ( -0.000000000000000000, -0.000000000000000000, -1.000000000000000000 ) ) ;
#234 = EDGE_LOOP ( 'NONE', ( #20, #130, #58, #144 ) ) ;
#235 = PRODUCT_DEFINITION_FORMATION_WITH_SPECIFIED_SOURCE ( 'LIBOVOLNÝ', '', #134, .NOT_KNOWN. ) ;
#236 = FACE_OUTER_BOUND ( 'NONE', #48, .T. ) ;
#237 = CARTESIAN_POINT ( 'NONE',  ( 4.099999999999999645, 5.021051876504147385E-16, 5.000000000000000000 ) ) ;
#238 = FACE_BOUND ( 'NONE', #166, .T. ) ;
#239 = CARTESIAN_POINT ( 'NONE',  ( -7.000000000000000000, 0.000000000000000000, 0.000000000000000000 ) ) ;
#240 = ORIENTED_EDGE ( 'NONE', *, *, #230, .F. ) ;
#241 = CARTESIAN_POINT ( 'NONE',  ( 0.000000000000000000, 0.000000000000000000, 5.000000000000000000 ) ) ;
#242 = AXIS2_PLACEMENT_3D ( 'NONE', #125, #49, #170 ) ;
#243 = DIRECTION ( 'NONE',  ( 1.000000000000000000, 0.000000000000000000, 0.000000000000000000 ) ) ;
#244 = DIRECTION ( 'NONE',  ( 0.000000000000000000, 0.000000000000000000, 1.000000000000000000 ) ) ;
#245 = MECHANICAL_CONTEXT ( 'NONE', #1, 'mechanical' ) ;
#246 = CALENDAR_DATE ( 2022, 7, 7 ) ;
#247 = AXIS2_PLACEMENT_3D ( 'NONE', #74, #112, #30 ) ;
#248 = DIRECTION ( 'NONE',  ( -0.000000000000000000, -0.000000000000000000, -1.000000000000000000 ) ) ;
#249 = ADVANCED_FACE ( 'NONE', ( #111 ), #92, .T. ) ;
#250 = LOCAL_TIME ( 19, 31, 50.00000000000000000, #90 ) ;
#251 = AXIS2_PLACEMENT_3D ( 'NONE', #191, #69, #220 ) ;
#252 = CC_DESIGN_APPROVAL ( #35, ( #178 ) ) ;
#253 = EDGE_LOOP ( 'NONE', ( #88, #42 ) ) ;
#254 = PLANE ( 'NONE',  #123 ) ;
#255 = EDGE_CURVE ( 'NONE', #126, #225, #82, .T. ) ;
ENDSEC;
END-ISO-10303-21;
