ISO-10303-21;
HEADER;
FILE_DESCRIPTION (( 'STEP AP203' ),
    '1' );
FILE_NAME ('f14c.STEP',
    '2022-07-07T17:39:10',
    ( '' ),
    ( '' ),
    'SwSTEP 2.0',
    'SolidWorks 2019',
    '' );
FILE_SCHEMA (( 'CONFIG_CONTROL_DESIGN' ));
ENDSEC;

DATA;
#1 = AXIS2_PLACEMENT_3D ( 'NONE', #112, #48, #108 ) ;
#2 = CC_DESIGN_PERSON_AND_ORGANIZATION_ASSIGNMENT ( #95, #175, ( #74 ) ) ;
#3 = ORIENTED_EDGE ( 'NONE', *, *, #118, .F. ) ;
#4 = APPROVAL ( #170, 'NEURÈENÝ' ) ;
#5 = APPROVAL_PERSON_ORGANIZATION ( #230, #205, #11 ) ;
#6 = ORIENTED_EDGE ( 'NONE', *, *, #46, .T. ) ;
#7 = DIRECTION ( 'NONE',  ( 0.000000000000000000, 0.000000000000000000, 1.000000000000000000 ) ) ;
#8 = EDGE_CURVE ( 'NONE', #103, #144, #197, .T. ) ;
#9 = ORIENTED_EDGE ( 'NONE', *, *, #78, .T. ) ;
#10 = DIRECTION ( 'NONE',  ( 0.000000000000000000, 0.000000000000000000, 1.000000000000000000 ) ) ;
#11 = APPROVAL_ROLE ( '' ) ;
#12 = DIRECTION ( 'NONE',  ( -1.000000000000000000, 0.000000000000000000, 0.000000000000000000 ) ) ;
#13 = MECHANICAL_CONTEXT ( 'NONE', #223, 'mechanical' ) ;
#14 = PLANE ( 'NONE',  #51 ) ;
#15 = DIRECTION ( 'NONE',  ( 0.000000000000000000, 0.000000000000000000, 1.000000000000000000 ) ) ;
#16 = AXIS2_PLACEMENT_3D ( 'NONE', #207, #174, #12 ) ;
#17 = APPROVAL_DATE_TIME ( #228, #64 ) ;
#18 = ORGANIZATION ( 'NEURÈENÝ', 'NEURÈENÝ', '' ) ;
#19 = CARTESIAN_POINT ( 'NONE',  ( -6.000000000000000888, 0.000000000000000000, 5.000000000000000000 ) ) ;
#20 = DATE_AND_TIME ( #173, #165 ) ;
#21 = PLANE ( 'NONE',  #224 ) ;
#22 = ADVANCED_FACE ( 'NONE', ( #35 ), #75, .T. ) ;
#23 = CIRCLE ( 'NONE', #43, 3.100000000000000089 ) ;
#24 = AXIS2_PLACEMENT_3D ( 'NONE', #187, #7, #73 ) ;
#25 = EDGE_LOOP ( 'NONE', ( #182, #149, #6, #101 ) ) ;
#26 = ORIENTED_EDGE ( 'NONE', *, *, #239, .F. ) ;
#27 = DIRECTION ( 'NONE',  ( -0.000000000000000000, -0.000000000000000000, -1.000000000000000000 ) ) ;
#28 = DIRECTION ( 'NONE',  ( -1.000000000000000000, 0.000000000000000000, 0.000000000000000000 ) ) ;
#29 = CLOSED_SHELL ( 'NONE', ( #178, #121, #127, #105, #125, #22, #53 ) ) ;
#30 = CARTESIAN_POINT ( 'NONE',  ( 0.000000000000000000, 0.000000000000000000, 0.000000000000000000 ) ) ;
#31 = PERSON_AND_ORGANIZATION ( #179, #18 ) ;
#32 = DIRECTION ( 'NONE',  ( -0.000000000000000000, -0.000000000000000000, -1.000000000000000000 ) ) ;
#33 = FACE_OUTER_BOUND ( 'NONE', #44, .T. ) ;
#34 = EDGE_CURVE ( 'NONE', #100, #68, #38, .T. ) ;
#35 = FACE_OUTER_BOUND ( 'NONE', #186, .T. ) ;
#36 = CARTESIAN_POINT ( 'NONE',  ( 0.000000000000000000, 0.000000000000000000, 0.000000000000000000 ) ) ;
#37 = PERSON_AND_ORGANIZATION ( #179, #18 ) ;
#38 = LINE ( 'NONE', #135, #204 ) ;
#39 = AXIS2_PLACEMENT_3D ( 'NONE', #168, #252, #232 ) ;
#40 = CARTESIAN_POINT ( 'NONE',  ( 0.000000000000000000, 0.000000000000000000, 5.000000000000000000 ) ) ;
#41 = SECURITY_CLASSIFICATION_LEVEL ( 'unclassified' ) ;
#42 = EDGE_CURVE ( 'NONE', #68, #166, #23, .T. ) ;
#43 = AXIS2_PLACEMENT_3D ( 'NONE', #131, #226, #71 ) ;
#44 = EDGE_LOOP ( 'NONE', ( #139, #212, #222, #65 ) ) ;
#45 = CC_DESIGN_APPROVAL ( #4, ( #74 ) ) ;
#46 = EDGE_CURVE ( 'NONE', #82, #146, #158, .T. ) ;
#47 = CYLINDRICAL_SURFACE ( 'NONE', #220, 6.000000000000000888 ) ;
#48 = DIRECTION ( 'NONE',  ( 0.000000000000000000, 0.000000000000000000, 1.000000000000000000 ) ) ;
#49 = PERSON_AND_ORGANIZATION ( #179, #18 ) ;
#50 = CARTESIAN_POINT ( 'NONE',  ( 6.000000000000000888, 7.347880794884120722E-16, 5.000000000000000000 ) ) ;
#51 = AXIS2_PLACEMENT_3D ( 'NONE', #77, #160, #248 ) ;
#52 = APPLICATION_PROTOCOL_DEFINITION ( 'international standard', 'config_control_design', 1994, #223 ) ;
#53 = ADVANCED_FACE ( 'NONE', ( #96 ), #21, .T. ) ;
#54 = PERSON_AND_ORGANIZATION_ROLE ( 'design_owner' ) ;
#55 = ORIENTED_EDGE ( 'NONE', *, *, #42, .F. ) ;
#56 = FACE_OUTER_BOUND ( 'NONE', #25, .T. ) ;
#57 = COORDINATED_UNIVERSAL_TIME_OFFSET ( 1, 0, .AHEAD. ) ;
#58 = ORIENTED_EDGE ( 'NONE', *, *, #8, .T. ) ;
#59 = CALENDAR_DATE ( 2022, 7, 7 ) ;
#60 = DIRECTION ( 'NONE',  ( 0.000000000000000000, 0.000000000000000000, 1.000000000000000000 ) ) ;
#61 = AXIS2_PLACEMENT_3D ( 'NONE', #193, #111, #191 ) ;
#62 = CALENDAR_DATE ( 2022, 7, 7 ) ;
#63 = CIRCLE ( 'NONE', #188, 3.100000000000000089 ) ;
#64 = APPROVAL ( #194, 'NEURÈENÝ' ) ;
#65 = ORIENTED_EDGE ( 'NONE', *, *, #143, .F. ) ;
#66 = ORIENTED_EDGE ( 'NONE', *, *, #46, .F. ) ;
#67 = ORIENTED_EDGE ( 'NONE', *, *, #181, .T. ) ;
#68 = VERTEX_POINT ( 'NONE', #171 ) ;
#69 = CC_DESIGN_DATE_AND_TIME_ASSIGNMENT ( #20, #130, ( #74 ) ) ;
#70 = AXIS2_PLACEMENT_3D ( 'NONE', #242, #167, #136 ) ;
#71 = DIRECTION ( 'NONE',  ( 1.000000000000000000, 0.000000000000000000, 0.000000000000000000 ) ) ;
#72 = CYLINDRICAL_SURFACE ( 'NONE', #122, 6.000000000000000888 ) ;
#73 = DIRECTION ( 'NONE',  ( 1.000000000000000000, 0.000000000000000000, 0.000000000000000000 ) ) ;
#74 = SECURITY_CLASSIFICATION ( '', '', #41 ) ;
#75 = CYLINDRICAL_SURFACE ( 'NONE', #16, 3.100000000000000089 ) ;
#76 = APPROVAL_DATE_TIME ( #177, #4 ) ;
#77 = CARTESIAN_POINT ( 'NONE',  ( 0.000000000000000000, 0.000000000000000000, 5.000000000000000000 ) ) ;
#78 = EDGE_CURVE ( 'NONE', #103, #82, #117, .T. ) ;
#79 = CALENDAR_DATE ( 2022, 7, 7 ) ;
#80 = CC_DESIGN_PERSON_AND_ORGANIZATION_ASSIGNMENT ( #137, #89, ( #119 ) ) ;
#81 = VECTOR ( 'NONE', #138, 1000.000000000000000 ) ;
#82 = VERTEX_POINT ( 'NONE', #19 ) ;
#83 = ORIENTED_EDGE ( 'NONE', *, *, #254, .T. ) ;
#84 = CIRCLE ( 'NONE', #243, 3.100000000000000089 ) ;
#85 = ORIENTED_EDGE ( 'NONE', *, *, #78, .F. ) ;
#86 =( LENGTH_UNIT ( ) NAMED_UNIT ( * ) SI_UNIT ( .MILLI., .METRE. ) );
#87 = FACE_OUTER_BOUND ( 'NONE', #245, .T. ) ;
#88 = CARTESIAN_POINT ( 'NONE',  ( 0.000000000000000000, 0.000000000000000000, 5.000000000000000000 ) ) ;
#89 = PERSON_AND_ORGANIZATION_ROLE ( 'creator' ) ;
#90 = DIRECTION ( 'NONE',  ( 1.000000000000000000, 0.000000000000000000, 0.000000000000000000 ) ) ;
#91 = DIRECTION ( 'NONE',  ( -0.000000000000000000, -0.000000000000000000, -1.000000000000000000 ) ) ;
#92 = COORDINATED_UNIVERSAL_TIME_OFFSET ( 1, 0, .AHEAD. ) ;
#93 = DIRECTION ( 'NONE',  ( -0.000000000000000000, -0.000000000000000000, -1.000000000000000000 ) ) ;
#94 = CIRCLE ( 'NONE', #1, 3.100000000000000089 ) ;
#95 = PERSON_AND_ORGANIZATION ( #179, #18 ) ;
#96 = FACE_OUTER_BOUND ( 'NONE', #126, .T. ) ;
#97 = CC_DESIGN_DATE_AND_TIME_ASSIGNMENT ( #157, #141, ( #215 ) ) ;
#98 = LOCAL_TIME ( 19, 39, 10.00000000000000000, #92 ) ;
#99 = ORIENTED_EDGE ( 'NONE', *, *, #181, .F. ) ;
#100 = VERTEX_POINT ( 'NONE', #113 ) ;
#101 = ORIENTED_EDGE ( 'NONE', *, *, #239, .T. ) ;
#102 = PRODUCT_DEFINITION_SHAPE ( 'NONE', 'NONE',  #215 ) ;
#103 = VERTEX_POINT ( 'NONE', #210 ) ;
#104 = DIRECTION ( 'NONE',  ( -1.000000000000000000, 0.000000000000000000, 0.000000000000000000 ) ) ;
#105 = ADVANCED_FACE ( 'NONE', ( #229, #120 ), #14, .T. ) ;
#106 = VECTOR ( 'NONE', #132, 1000.000000000000000 ) ;
#107 = FACE_OUTER_BOUND ( 'NONE', #147, .T. ) ;
#108 = DIRECTION ( 'NONE',  ( 1.000000000000000000, 0.000000000000000000, 0.000000000000000000 ) ) ;
#109 = CIRCLE ( 'NONE', #24, 6.000000000000000888 ) ;
#110 = APPLICATION_PROTOCOL_DEFINITION ( 'international standard', 'config_control_design', 1994, #123 ) ;
#111 = DIRECTION ( 'NONE',  ( 0.000000000000000000, 0.000000000000000000, 1.000000000000000000 ) ) ;
#112 = CARTESIAN_POINT ( 'NONE',  ( 0.000000000000000000, 0.000000000000000000, 5.000000000000000000 ) ) ;
#113 = CARTESIAN_POINT ( 'NONE',  ( 3.100000000000000089, 3.796405077356794918E-16, 255.0000000000000000 ) ) ;
#114 = CARTESIAN_POINT ( 'NONE',  ( -6.000000000000000888, 0.000000000000000000, 0.000000000000000000 ) ) ;
#115 = PERSON_AND_ORGANIZATION_ROLE ( 'design_supplier' ) ;
#116 = DIRECTION ( 'NONE',  ( 0.000000000000000000, 0.000000000000000000, 1.000000000000000000 ) ) ;
#117 = CIRCLE ( 'NONE', #39, 6.000000000000000888 ) ;
#118 = EDGE_CURVE ( 'NONE', #240, #100, #84, .T. ) ;
#119 = PRODUCT_DEFINITION_FORMATION_WITH_SPECIFIED_SOURCE ( 'LIBOVOLNÝ', '', #255, .NOT_KNOWN. ) ;
#120 = FACE_OUTER_BOUND ( 'NONE', #250, .T. ) ;
#121 = ADVANCED_FACE ( 'NONE', ( #87 ), #72, .T. ) ;
#122 = AXIS2_PLACEMENT_3D ( 'NONE', #40, #32, #28 ) ;
#123 = APPLICATION_CONTEXT ( 'configuration controlled 3d designs of mechanical parts and assemblies' ) ;
#124 = ADVANCED_BREP_SHAPE_REPRESENTATION ( 'f14c', ( #233, #237 ), #184 ) ;
#125 = ADVANCED_FACE ( 'NONE', ( #107 ), #151, .F. ) ;
#126 = EDGE_LOOP ( 'NONE', ( #183, #164 ) ) ;
#127 = ADVANCED_FACE ( 'NONE', ( #56 ), #47, .T. ) ;
#128 = AXIS2_PLACEMENT_3D ( 'NONE', #36, #227, #203 ) ;
#129 = LINE ( 'NONE', #189, #106 ) ;
#130 = DATE_TIME_ROLE ( 'classification_date' ) ;
#131 = CARTESIAN_POINT ( 'NONE',  ( 0.000000000000000000, 0.000000000000000000, 5.000000000000000000 ) ) ;
#132 = DIRECTION ( 'NONE',  ( -0.000000000000000000, -0.000000000000000000, -1.000000000000000000 ) ) ;
#133 = AXIS2_PLACEMENT_3D ( 'NONE', #225, #27, #154 ) ;
#134 = PERSON_AND_ORGANIZATION ( #179, #18 ) ;
#135 = CARTESIAN_POINT ( 'NONE',  ( 3.100000000000000089, 3.796405077356794918E-16, 255.0000000000000000 ) ) ;
#136 = DIRECTION ( 'NONE',  ( 1.000000000000000000, 0.000000000000000000, 0.000000000000000000 ) ) ;
#137 = PERSON_AND_ORGANIZATION ( #179, #18 ) ;
#138 = DIRECTION ( 'NONE',  ( -0.000000000000000000, -0.000000000000000000, -1.000000000000000000 ) ) ;
#139 = ORIENTED_EDGE ( 'NONE', *, *, #202, .F. ) ;
#140 = APPROVAL_PERSON_ORGANIZATION ( #31, #4, #159 ) ;
#141 = DATE_TIME_ROLE ( 'creation_date' ) ;
#142 = CC_DESIGN_PERSON_AND_ORGANIZATION_ASSIGNMENT ( #37, #236, ( #215 ) ) ;
#143 = EDGE_CURVE ( 'NONE', #240, #166, #129, .T. ) ;
#144 = VERTEX_POINT ( 'NONE', #185 ) ;
#145 = ORIENTED_EDGE ( 'NONE', *, *, #254, .F. ) ;
#146 = VERTEX_POINT ( 'NONE', #114 ) ;
#147 = EDGE_LOOP ( 'NONE', ( #26, #145 ) ) ;
#148 = DIRECTION ( 'NONE',  ( 1.000000000000000000, 0.000000000000000000, 0.000000000000000000 ) ) ;
#149 = ORIENTED_EDGE ( 'NONE', *, *, #218, .F. ) ;
#150 = CYLINDRICAL_SURFACE ( 'NONE', #133, 3.100000000000000089 ) ;
#151 = PLANE ( 'NONE',  #61 ) ;
#152 = DIRECTION ( 'NONE',  ( 1.000000000000000000, 0.000000000000000000, 0.000000000000000000 ) ) ;
#153 = CARTESIAN_POINT ( 'NONE',  ( -6.000000000000000888, 0.000000000000000000, 5.000000000000000000 ) ) ;
#154 = DIRECTION ( 'NONE',  ( -1.000000000000000000, 0.000000000000000000, 0.000000000000000000 ) ) ;
#155 = CC_DESIGN_APPROVAL ( #64, ( #119 ) ) ;
#156 = CC_DESIGN_PERSON_AND_ORGANIZATION_ASSIGNMENT ( #49, #54, ( #255 ) ) ;
#157 = DATE_AND_TIME ( #79, #162 ) ;
#158 = LINE ( 'NONE', #153, #81 ) ;
#159 = APPROVAL_ROLE ( '' ) ;
#160 = DIRECTION ( 'NONE',  ( 0.000000000000000000, 0.000000000000000000, 1.000000000000000000 ) ) ;
#161 = DATE_AND_TIME ( #62, #219 ) ;
#162 = LOCAL_TIME ( 19, 39, 10.00000000000000000, #57 ) ;
#163 = LOCAL_TIME ( 19, 39, 10.00000000000000000, #251 ) ;
#164 = ORIENTED_EDGE ( 'NONE', *, *, #202, .T. ) ;
#165 = LOCAL_TIME ( 19, 39, 10.00000000000000000, #253 ) ;
#166 = VERTEX_POINT ( 'NONE', #249 ) ;
#167 = DIRECTION ( 'NONE',  ( 0.000000000000000000, 0.000000000000000000, 1.000000000000000000 ) ) ;
#168 = CARTESIAN_POINT ( 'NONE',  ( 0.000000000000000000, 0.000000000000000000, 5.000000000000000000 ) ) ;
#169 =( NAMED_UNIT ( * ) SI_UNIT ( $, .STERADIAN. ) SOLID_ANGLE_UNIT ( ) );
#170 = APPROVAL_STATUS ( 'not_yet_approved' ) ;
#171 = CARTESIAN_POINT ( 'NONE',  ( 3.100000000000000089, 3.796405077356794918E-16, 5.000000000000000000 ) ) ;
#172 = PRODUCT_RELATED_PRODUCT_CATEGORY ( 'detail', '', ( #255 ) ) ;
#173 = CALENDAR_DATE ( 2022, 7, 7 ) ;
#174 = DIRECTION ( 'NONE',  ( -0.000000000000000000, -0.000000000000000000, -1.000000000000000000 ) ) ;
#175 = PERSON_AND_ORGANIZATION_ROLE ( 'classification_officer' ) ;
#176 = ORIENTED_EDGE ( 'NONE', *, *, #143, .T. ) ;
#177 = DATE_AND_TIME ( #59, #163 ) ;
#178 = ADVANCED_FACE ( 'NONE', ( #33 ), #150, .T. ) ;
#179 = PERSON ( 'NEURÈENÝ', 'NEURÈENÝ', 'NEURÈENÝ', ('NEURÈENÝ'), ('NEURÈENÝ'), ('NEURÈENÝ') ) ;
#180 = CIRCLE ( 'NONE', #70, 6.000000000000000888 ) ;
#181 = EDGE_CURVE ( 'NONE', #166, #68, #94, .T. ) ;
#182 = ORIENTED_EDGE ( 'NONE', *, *, #8, .F. ) ;
#183 = ORIENTED_EDGE ( 'NONE', *, *, #118, .T. ) ;
#184 =( GEOMETRIC_REPRESENTATION_CONTEXT ( 3 ) GLOBAL_UNCERTAINTY_ASSIGNED_CONTEXT ( ( #199 ) ) GLOBAL_UNIT_ASSIGNED_CONTEXT ( ( #86, #192, #169 ) ) REPRESENTATION_CONTEXT ( 'NONE', 'WORKASPACE' ) );
#185 = CARTESIAN_POINT ( 'NONE',  ( 6.000000000000000888, 7.347880794884120722E-16, 0.000000000000000000 ) ) ;
#186 = EDGE_LOOP ( 'NONE', ( #200, #3, #176, #67 ) ) ;
#187 = CARTESIAN_POINT ( 'NONE',  ( 0.000000000000000000, 0.000000000000000000, 0.000000000000000000 ) ) ;
#188 = AXIS2_PLACEMENT_3D ( 'NONE', #208, #15, #148 ) ;
#189 = CARTESIAN_POINT ( 'NONE',  ( -3.100000000000000089, 0.000000000000000000, 255.0000000000000000 ) ) ;
#190 = PERSON_AND_ORGANIZATION ( #179, #18 ) ;
#191 = DIRECTION ( 'NONE',  ( 1.000000000000000000, 0.000000000000000000, -0.000000000000000000 ) ) ;
#192 =( NAMED_UNIT ( * ) PLANE_ANGLE_UNIT ( ) SI_UNIT ( $, .RADIAN. ) );
#193 = CARTESIAN_POINT ( 'NONE',  ( 0.000000000000000000, 0.000000000000000000, 0.000000000000000000 ) ) ;
#194 = APPROVAL_STATUS ( 'not_yet_approved' ) ;
#195 = DIRECTION ( 'NONE',  ( 1.000000000000000000, 0.000000000000000000, -0.000000000000000000 ) ) ;
#196 = APPROVAL_ROLE ( '' ) ;
#197 = LINE ( 'NONE', #50, #213 ) ;
#198 = CC_DESIGN_PERSON_AND_ORGANIZATION_ASSIGNMENT ( #134, #115, ( #119 ) ) ;
#199 = UNCERTAINTY_MEASURE_WITH_UNIT (LENGTH_MEASURE( 1.000000000000000082E-05 ), #86, 'distance_accuracy_value', 'NONE');
#200 = ORIENTED_EDGE ( 'NONE', *, *, #34, .F. ) ;
#201 = CC_DESIGN_SECURITY_CLASSIFICATION ( #74, ( #119 ) ) ;
#202 = EDGE_CURVE ( 'NONE', #100, #240, #63, .T. ) ;
#203 = DIRECTION ( 'NONE',  ( 1.000000000000000000, 0.000000000000000000, 0.000000000000000000 ) ) ;
#204 = VECTOR ( 'NONE', #93, 1000.000000000000000 ) ;
#205 = APPROVAL ( #209, 'NEURÈENÝ' ) ;
#206 = COORDINATED_UNIVERSAL_TIME_OFFSET ( 1, 0, .AHEAD. ) ;
#207 = CARTESIAN_POINT ( 'NONE',  ( 0.000000000000000000, 0.000000000000000000, 255.0000000000000000 ) ) ;
#208 = CARTESIAN_POINT ( 'NONE',  ( 0.000000000000000000, 0.000000000000000000, 255.0000000000000000 ) ) ;
#209 = APPROVAL_STATUS ( 'not_yet_approved' ) ;
#210 = CARTESIAN_POINT ( 'NONE',  ( 6.000000000000000888, 7.347880794884120722E-16, 5.000000000000000000 ) ) ;
#211 = APPROVAL_DATE_TIME ( #161, #205 ) ;
#212 = ORIENTED_EDGE ( 'NONE', *, *, #34, .T. ) ;
#213 = VECTOR ( 'NONE', #246, 1000.000000000000000 ) ;
#214 = CARTESIAN_POINT ( 'NONE',  ( 0.000000000000000000, 0.000000000000000000, 255.0000000000000000 ) ) ;
#215 = PRODUCT_DEFINITION ( 'NEZNÁMÝ', '', #119, #231 ) ;
#216 = APPROVAL_PERSON_ORGANIZATION ( #190, #64, #196 ) ;
#217 = CALENDAR_DATE ( 2022, 7, 7 ) ;
#218 = EDGE_CURVE ( 'NONE', #82, #103, #180, .T. ) ;
#219 = LOCAL_TIME ( 19, 39, 10.00000000000000000, #206 ) ;
#220 = AXIS2_PLACEMENT_3D ( 'NONE', #88, #91, #104 ) ;
#221 = CC_DESIGN_APPROVAL ( #205, ( #215 ) ) ;
#222 = ORIENTED_EDGE ( 'NONE', *, *, #42, .T. ) ;
#223 = APPLICATION_CONTEXT ( 'configuration controlled 3d designs of mechanical parts and assemblies' ) ;
#224 = AXIS2_PLACEMENT_3D ( 'NONE', #214, #116, #195 ) ;
#225 = CARTESIAN_POINT ( 'NONE',  ( 0.000000000000000000, 0.000000000000000000, 255.0000000000000000 ) ) ;
#226 = DIRECTION ( 'NONE',  ( 0.000000000000000000, 0.000000000000000000, 1.000000000000000000 ) ) ;
#227 = DIRECTION ( 'NONE',  ( 0.000000000000000000, 0.000000000000000000, 1.000000000000000000 ) ) ;
#228 = DATE_AND_TIME ( #217, #98 ) ;
#229 = FACE_BOUND ( 'NONE', #244, .T. ) ;
#230 = PERSON_AND_ORGANIZATION ( #179, #18 ) ;
#231 = DESIGN_CONTEXT ( 'detailed design', #123, 'design' ) ;
#232 = DIRECTION ( 'NONE',  ( 1.000000000000000000, 0.000000000000000000, 0.000000000000000000 ) ) ;
#233 = MANIFOLD_SOLID_BREP ( 'Pøidat vysunutím3', #29 ) ;
#234 = SHAPE_DEFINITION_REPRESENTATION ( #102, #124 ) ;
#235 = CARTESIAN_POINT ( 'NONE',  ( 0.000000000000000000, 0.000000000000000000, 255.0000000000000000 ) ) ;
#236 = PERSON_AND_ORGANIZATION_ROLE ( 'creator' ) ;
#237 = AXIS2_PLACEMENT_3D ( 'NONE', #30, #10, #152 ) ;
#238 = CIRCLE ( 'NONE', #128, 6.000000000000000888 ) ;
#239 = EDGE_CURVE ( 'NONE', #146, #144, #238, .T. ) ;
#240 = VERTEX_POINT ( 'NONE', #247 ) ;
#241 = ORIENTED_EDGE ( 'NONE', *, *, #218, .T. ) ;
#242 = CARTESIAN_POINT ( 'NONE',  ( 0.000000000000000000, 0.000000000000000000, 5.000000000000000000 ) ) ;
#243 = AXIS2_PLACEMENT_3D ( 'NONE', #235, #60, #90 ) ;
#244 = EDGE_LOOP ( 'NONE', ( #99, #55 ) ) ;
#245 = EDGE_LOOP ( 'NONE', ( #85, #58, #83, #66 ) ) ;
#246 = DIRECTION ( 'NONE',  ( -0.000000000000000000, -0.000000000000000000, -1.000000000000000000 ) ) ;
#247 = CARTESIAN_POINT ( 'NONE',  ( -3.100000000000000089, 0.000000000000000000, 255.0000000000000000 ) ) ;
#248 = DIRECTION ( 'NONE',  ( 1.000000000000000000, 0.000000000000000000, -0.000000000000000000 ) ) ;
#249 = CARTESIAN_POINT ( 'NONE',  ( -3.100000000000000089, 0.000000000000000000, 5.000000000000000000 ) ) ;
#250 = EDGE_LOOP ( 'NONE', ( #241, #9 ) ) ;
#251 = COORDINATED_UNIVERSAL_TIME_OFFSET ( 1, 0, .AHEAD. ) ;
#252 = DIRECTION ( 'NONE',  ( 0.000000000000000000, 0.000000000000000000, 1.000000000000000000 ) ) ;
#253 = COORDINATED_UNIVERSAL_TIME_OFFSET ( 1, 0, .AHEAD. ) ;
#254 = EDGE_CURVE ( 'NONE', #144, #146, #109, .T. ) ;
#255 = PRODUCT ( 'f14c', 'f14c', '', ( #13 ) ) ;
ENDSEC;
END-ISO-10303-21;
