ISO-10303-21;
HEADER;
FILE_DESCRIPTION (( 'STEP AP203' ),
    '1' );
FILE_NAME ('cb3a.STEP',
    '2022-07-07T17:03:38',
    ( '' ),
    ( '' ),
    'SwSTEP 2.0',
    'SolidWorks 2019',
    '' );
FILE_SCHEMA (( 'CONFIG_CONTROL_DESIGN' ));
ENDSEC;

DATA;
#1 = AXIS2_PLACEMENT_3D ( 'NONE', #141, #39, #124 ) ;
#2 = DIRECTION ( 'NONE',  ( 1.000000000000000000, 0.000000000000000000, 0.000000000000000000 ) ) ;
#3 = CC_DESIGN_PERSON_AND_ORGANIZATION_ASSIGNMENT ( #162, #4, ( #252 ) ) ;
#4 = PERSON_AND_ORGANIZATION_ROLE ( 'design_supplier' ) ;
#5 = DIRECTION ( 'NONE',  ( 0.000000000000000000, 0.000000000000000000, 1.000000000000000000 ) ) ;
#6 = ORIENTED_EDGE ( 'NONE', *, *, #131, .F. ) ;
#7 = APPROVAL ( #149, 'NEURÈENÝ' ) ;
#8 = VERTEX_POINT ( 'NONE', #96 ) ;
#9 = CC_DESIGN_APPROVAL ( #7, ( #62 ) ) ;
#10 = AXIS2_PLACEMENT_3D ( 'NONE', #26, #177, #2 ) ;
#11 = EDGE_CURVE ( 'NONE', #8, #43, #184, .T. ) ;
#12 = CC_DESIGN_PERSON_AND_ORGANIZATION_ASSIGNMENT ( #237, #19, ( #252 ) ) ;
#13 = EDGE_CURVE ( 'NONE', #43, #8, #83, .T. ) ;
#14 = DIRECTION ( 'NONE',  ( 0.000000000000000000, 0.000000000000000000, 1.000000000000000000 ) ) ;
#15 = ADVANCED_FACE ( 'NONE', ( #191 ), #33, .T. ) ;
#16 = DIRECTION ( 'NONE',  ( 0.000000000000000000, 0.000000000000000000, 1.000000000000000000 ) ) ;
#17 = SHAPE_DEFINITION_REPRESENTATION ( #181, #115 ) ;
#18 = EDGE_LOOP ( 'NONE', ( #126, #49, #132, #207 ) ) ;
#19 = PERSON_AND_ORGANIZATION_ROLE ( 'creator' ) ;
#20 = LOCAL_TIME ( 19, 3, 38.00000000000000000, #44 ) ;
#21 = DIRECTION ( 'NONE',  ( 0.000000000000000000, 0.000000000000000000, 1.000000000000000000 ) ) ;
#22 = VECTOR ( 'NONE', #34, 1000.000000000000000 ) ;
#23 = CALENDAR_DATE ( 2022, 7, 7 ) ;
#24 = DIRECTION ( 'NONE',  ( 1.000000000000000000, 0.000000000000000000, -0.000000000000000000 ) ) ;
#25 = DIRECTION ( 'NONE',  ( 0.000000000000000000, 0.000000000000000000, 1.000000000000000000 ) ) ;
#26 = CARTESIAN_POINT ( 'NONE',  ( 0.000000000000000000, 0.000000000000000000, 323.0000000000000000 ) ) ;
#27 = CIRCLE ( 'NONE', #114, 13.00000000000000178 ) ;
#28 = CARTESIAN_POINT ( 'NONE',  ( 10.00000000000000178, 1.224646799147353454E-15, 8.000000000000000000 ) ) ;
#29 = ORIENTED_EDGE ( 'NONE', *, *, #59, .T. ) ;
#30 = APPROVAL ( #218, 'NEURÈENÝ' ) ;
#31 = CARTESIAN_POINT ( 'NONE',  ( 0.000000000000000000, 0.000000000000000000, 8.000000000000000000 ) ) ;
#32 = CIRCLE ( 'NONE', #183, 10.00000000000000178 ) ;
#33 = CYLINDRICAL_SURFACE ( 'NONE', #1, 13.00000000000000178 ) ;
#34 = DIRECTION ( 'NONE',  ( -0.000000000000000000, -0.000000000000000000, -1.000000000000000000 ) ) ;
#35 = PERSON_AND_ORGANIZATION_ROLE ( 'design_owner' ) ;
#36 = LINE ( 'NONE', #187, #22 ) ;
#37 = COORDINATED_UNIVERSAL_TIME_OFFSET ( 1, 0, .AHEAD. ) ;
#38 = SECURITY_CLASSIFICATION ( '', '', #58 ) ;
#39 = DIRECTION ( 'NONE',  ( -0.000000000000000000, -0.000000000000000000, -1.000000000000000000 ) ) ;
#40 = ORIENTED_EDGE ( 'NONE', *, *, #110, .F. ) ;
#41 = PERSON_AND_ORGANIZATION ( #92, #135 ) ;
#42 = CARTESIAN_POINT ( 'NONE',  ( -10.00000000000000178, 0.000000000000000000, 323.0000000000000000 ) ) ;
#43 = VERTEX_POINT ( 'NONE', #137 ) ;
#44 = COORDINATED_UNIVERSAL_TIME_OFFSET ( 1, 0, .AHEAD. ) ;
#45 = MECHANICAL_CONTEXT ( 'NONE', #50, 'mechanical' ) ;
#46 = VERTEX_POINT ( 'NONE', #194 ) ;
#47 = CARTESIAN_POINT ( 'NONE',  ( -10.00000000000000178, 0.000000000000000000, 8.000000000000000000 ) ) ;
#48 = ORIENTED_EDGE ( 'NONE', *, *, #90, .F. ) ;
#49 = ORIENTED_EDGE ( 'NONE', *, *, #110, .T. ) ;
#50 = APPLICATION_CONTEXT ( 'configuration controlled 3d designs of mechanical parts and assemblies' ) ;
#51 = CLOSED_SHELL ( 'NONE', ( #206, #15, #99, #170, #153, #136, #189 ) ) ;
#52 = UNCERTAINTY_MEASURE_WITH_UNIT (LENGTH_MEASURE( 1.000000000000000082E-05 ), #148, 'distance_accuracy_value', 'NONE');
#53 = CC_DESIGN_PERSON_AND_ORGANIZATION_ASSIGNMENT ( #144, #35, ( #142 ) ) ;
#54 = EDGE_CURVE ( 'NONE', #208, #178, #117, .T. ) ;
#55 = CARTESIAN_POINT ( 'NONE',  ( 0.000000000000000000, 0.000000000000000000, 8.000000000000000000 ) ) ;
#56 = CC_DESIGN_APPROVAL ( #204, ( #38 ) ) ;
#57 = DIRECTION ( 'NONE',  ( 1.000000000000000000, 0.000000000000000000, 0.000000000000000000 ) ) ;
#58 = SECURITY_CLASSIFICATION_LEVEL ( 'unclassified' ) ;
#59 = EDGE_CURVE ( 'NONE', #72, #46, #32, .T. ) ;
#60 = DIRECTION ( 'NONE',  ( -0.000000000000000000, -0.000000000000000000, -1.000000000000000000 ) ) ;
#61 = CALENDAR_DATE ( 2022, 7, 7 ) ;
#62 = PRODUCT_DEFINITION ( 'NEZNÁMÝ', '', #252, #202 ) ;
#63 = DIRECTION ( 'NONE',  ( 0.000000000000000000, 0.000000000000000000, 1.000000000000000000 ) ) ;
#64 = EDGE_CURVE ( 'NONE', #8, #112, #134, .T. ) ;
#65 = PLANE ( 'NONE',  #209 ) ;
#66 = CYLINDRICAL_SURFACE ( 'NONE', #228, 10.00000000000000178 ) ;
#67 = DIRECTION ( 'NONE',  ( -0.000000000000000000, -0.000000000000000000, -1.000000000000000000 ) ) ;
#68 = ORIENTED_EDGE ( 'NONE', *, *, #59, .F. ) ;
#69 = AXIS2_PLACEMENT_3D ( 'NONE', #150, #5, #82 ) ;
#70 = LINE ( 'NONE', #42, #192 ) ;
#71 = EDGE_LOOP ( 'NONE', ( #40, #68, #113, #166 ) ) ;
#72 = VERTEX_POINT ( 'NONE', #249 ) ;
#73 = AXIS2_PLACEMENT_3D ( 'NONE', #55, #21, #188 ) ;
#74 = ORIENTED_EDGE ( 'NONE', *, *, #13, .T. ) ;
#75 = CARTESIAN_POINT ( 'NONE',  ( 0.000000000000000000, 0.000000000000000000, 8.000000000000000000 ) ) ;
#76 = DATE_TIME_ROLE ( 'creation_date' ) ;
#77 = LOCAL_TIME ( 19, 3, 38.00000000000000000, #81 ) ;
#78 = CYLINDRICAL_SURFACE ( 'NONE', #129, 10.00000000000000178 ) ;
#79 = APPROVAL_ROLE ( '' ) ;
#80 = CARTESIAN_POINT ( 'NONE',  ( -13.00000000000000178, 0.000000000000000000, 8.000000000000000000 ) ) ;
#81 = COORDINATED_UNIVERSAL_TIME_OFFSET ( 1, 0, .AHEAD. ) ;
#82 = DIRECTION ( 'NONE',  ( 1.000000000000000000, 0.000000000000000000, -0.000000000000000000 ) ) ;
#83 = CIRCLE ( 'NONE', #232, 13.00000000000000178 ) ;
#84 = APPROVAL_PERSON_ORGANIZATION ( #157, #204, #221 ) ;
#85 = PERSON_AND_ORGANIZATION ( #92, #135 ) ;
#86 =( NAMED_UNIT ( * ) SI_UNIT ( $, .STERADIAN. ) SOLID_ANGLE_UNIT ( ) );
#87 = ORIENTED_EDGE ( 'NONE', *, *, #255, .T. ) ;
#88 = CIRCLE ( 'NONE', #106, 13.00000000000000178 ) ;
#89 = ORIENTED_EDGE ( 'NONE', *, *, #54, .F. ) ;
#90 = EDGE_CURVE ( 'NONE', #178, #208, #146, .T. ) ;
#91 = APPLICATION_CONTEXT ( 'configuration controlled 3d designs of mechanical parts and assemblies' ) ;
#92 = PERSON ( 'NEURÈENÝ', 'NEURÈENÝ', 'NEURÈENÝ', ('NEURÈENÝ'), ('NEURÈENÝ'), ('NEURÈENÝ') ) ;
#93 = PRODUCT_RELATED_PRODUCT_CATEGORY ( 'detail', '', ( #142 ) ) ;
#94 = EDGE_CURVE ( 'NONE', #226, #112, #27, .T. ) ;
#95 = DIRECTION ( 'NONE',  ( 1.000000000000000000, 0.000000000000000000, 0.000000000000000000 ) ) ;
#96 = CARTESIAN_POINT ( 'NONE',  ( -13.00000000000000178, 0.000000000000000000, 8.000000000000000000 ) ) ;
#97 = PERSON_AND_ORGANIZATION_ROLE ( 'classification_officer' ) ;
#98 = ORIENTED_EDGE ( 'NONE', *, *, #11, .T. ) ;
#99 = ADVANCED_FACE ( 'NONE', ( #155 ), #235, .T. ) ;
#100 = PERSON_AND_ORGANIZATION_ROLE ( 'creator' ) ;
#101 = AXIS2_PLACEMENT_3D ( 'NONE', #75, #118, #215 ) ;
#102 = DIRECTION ( 'NONE',  ( -0.000000000000000000, -0.000000000000000000, -1.000000000000000000 ) ) ;
#103 = DATE_AND_TIME ( #193, #180 ) ;
#104 = DIRECTION ( 'NONE',  ( 0.000000000000000000, 0.000000000000000000, 1.000000000000000000 ) ) ;
#105 = DIRECTION ( 'NONE',  ( 1.000000000000000000, 0.000000000000000000, 0.000000000000000000 ) ) ;
#106 = AXIS2_PLACEMENT_3D ( 'NONE', #111, #159, #200 ) ;
#107 = DIRECTION ( 'NONE',  ( 0.000000000000000000, 0.000000000000000000, 1.000000000000000000 ) ) ;
#108 = CC_DESIGN_DATE_AND_TIME_ASSIGNMENT ( #103, #199, ( #38 ) ) ;
#109 = ORIENTED_EDGE ( 'NONE', *, *, #11, .F. ) ;
#110 = EDGE_CURVE ( 'NONE', #46, #208, #122, .T. ) ;
#111 = CARTESIAN_POINT ( 'NONE',  ( 0.000000000000000000, 0.000000000000000000, 0.000000000000000000 ) ) ;
#112 = VERTEX_POINT ( 'NONE', #158 ) ;
#113 = ORIENTED_EDGE ( 'NONE', *, *, #212, .T. ) ;
#114 = AXIS2_PLACEMENT_3D ( 'NONE', #214, #168, #248 ) ;
#115 = ADVANCED_BREP_SHAPE_REPRESENTATION ( 'cb3a', ( #210, #241 ), #182 ) ;
#116 = EDGE_LOOP ( 'NONE', ( #98, #74 ) ) ;
#117 = CIRCLE ( 'NONE', #152, 10.00000000000000178 ) ;
#118 = DIRECTION ( 'NONE',  ( -0.000000000000000000, -0.000000000000000000, -1.000000000000000000 ) ) ;
#119 = FACE_OUTER_BOUND ( 'NONE', #71, .T. ) ;
#120 = CC_DESIGN_PERSON_AND_ORGANIZATION_ASSIGNMENT ( #140, #97, ( #38 ) ) ;
#121 = PERSON_AND_ORGANIZATION ( #92, #135 ) ;
#122 = LINE ( 'NONE', #251, #229 ) ;
#123 = DATE_AND_TIME ( #223, #160 ) ;
#124 = DIRECTION ( 'NONE',  ( -1.000000000000000000, 0.000000000000000000, 0.000000000000000000 ) ) ;
#125 = PLANE ( 'NONE',  #69 ) ;
#126 = ORIENTED_EDGE ( 'NONE', *, *, #255, .F. ) ;
#127 = APPROVAL_DATE_TIME ( #123, #7 ) ;
#128 = CARTESIAN_POINT ( 'NONE',  ( 0.000000000000000000, 0.000000000000000000, 323.0000000000000000 ) ) ;
#129 = AXIS2_PLACEMENT_3D ( 'NONE', #139, #102, #230 ) ;
#130 = CC_DESIGN_DATE_AND_TIME_ASSIGNMENT ( #239, #76, ( #62 ) ) ;
#131 = EDGE_CURVE ( 'NONE', #43, #226, #36, .T. ) ;
#132 = ORIENTED_EDGE ( 'NONE', *, *, #54, .T. ) ;
#133 = APPROVAL_PERSON_ORGANIZATION ( #121, #7, #196 ) ;
#134 = LINE ( 'NONE', #80, #171 ) ;
#135 = ORGANIZATION ( 'NEURÈENÝ', 'NEURÈENÝ', '' ) ;
#136 = ADVANCED_FACE ( 'NONE', ( #119 ), #78, .T. ) ;
#137 = CARTESIAN_POINT ( 'NONE',  ( 13.00000000000000178, 1.592040838891559293E-15, 8.000000000000000000 ) ) ;
#138 = APPROVAL_STATUS ( 'not_yet_approved' ) ;
#139 = CARTESIAN_POINT ( 'NONE',  ( 0.000000000000000000, 0.000000000000000000, 323.0000000000000000 ) ) ;
#140 = PERSON_AND_ORGANIZATION ( #92, #135 ) ;
#141 = CARTESIAN_POINT ( 'NONE',  ( 0.000000000000000000, 0.000000000000000000, 8.000000000000000000 ) ) ;
#142 = PRODUCT ( 'cb3a', 'cb3a', '', ( #45 ) ) ;
#143 = CARTESIAN_POINT ( 'NONE',  ( 0.000000000000000000, 0.000000000000000000, 323.0000000000000000 ) ) ;
#144 = PERSON_AND_ORGANIZATION ( #92, #135 ) ;
#145 = AXIS2_PLACEMENT_3D ( 'NONE', #203, #107, #24 ) ;
#146 = CIRCLE ( 'NONE', #73, 10.00000000000000178 ) ;
#147 = APPROVAL_DATE_TIME ( #175, #30 ) ;
#148 =( LENGTH_UNIT ( ) NAMED_UNIT ( * ) SI_UNIT ( .MILLI., .METRE. ) );
#149 = APPROVAL_STATUS ( 'not_yet_approved' ) ;
#150 = CARTESIAN_POINT ( 'NONE',  ( 0.000000000000000000, 0.000000000000000000, 0.000000000000000000 ) ) ;
#151 = EDGE_LOOP ( 'NONE', ( #238, #219 ) ) ;
#152 = AXIS2_PLACEMENT_3D ( 'NONE', #31, #16, #57 ) ;
#153 = ADVANCED_FACE ( 'NONE', ( #161 ), #125, .F. ) ;
#154 = CC_DESIGN_PERSON_AND_ORGANIZATION_ASSIGNMENT ( #85, #100, ( #62 ) ) ;
#155 = FACE_OUTER_BOUND ( 'NONE', #173, .T. ) ;
#156 = EDGE_LOOP ( 'NONE', ( #29, #87 ) ) ;
#157 = PERSON_AND_ORGANIZATION ( #92, #135 ) ;
#158 = CARTESIAN_POINT ( 'NONE',  ( -13.00000000000000178, 0.000000000000000000, 0.000000000000000000 ) ) ;
#159 = DIRECTION ( 'NONE',  ( 0.000000000000000000, 0.000000000000000000, 1.000000000000000000 ) ) ;
#160 = LOCAL_TIME ( 19, 3, 38.00000000000000000, #225 ) ;
#161 = FACE_OUTER_BOUND ( 'NONE', #151, .T. ) ;
#162 = PERSON_AND_ORGANIZATION ( #92, #135 ) ;
#163 = CARTESIAN_POINT ( 'NONE',  ( 13.00000000000000178, 1.592040838891559293E-15, 0.000000000000000000 ) ) ;
#164 = FACE_BOUND ( 'NONE', #198, .T. ) ;
#165 = ORIENTED_EDGE ( 'NONE', *, *, #131, .T. ) ;
#166 = ORIENTED_EDGE ( 'NONE', *, *, #90, .T. ) ;
#167 = DIRECTION ( 'NONE',  ( 0.000000000000000000, 0.000000000000000000, 1.000000000000000000 ) ) ;
#168 = DIRECTION ( 'NONE',  ( 0.000000000000000000, 0.000000000000000000, 1.000000000000000000 ) ) ;
#169 = DIRECTION ( 'NONE',  ( -0.000000000000000000, -0.000000000000000000, -1.000000000000000000 ) ) ;
#170 = ADVANCED_FACE ( 'NONE', ( #164, #242 ), #176, .T. ) ;
#171 = VECTOR ( 'NONE', #169, 1000.000000000000000 ) ;
#172 = APPROVAL_DATE_TIME ( #254, #204 ) ;
#173 = EDGE_LOOP ( 'NONE', ( #6, #109, #179, #201 ) ) ;
#174 = COORDINATED_UNIVERSAL_TIME_OFFSET ( 1, 0, .AHEAD. ) ;
#175 = DATE_AND_TIME ( #23, #20 ) ;
#176 = PLANE ( 'NONE',  #145 ) ;
#177 = DIRECTION ( 'NONE',  ( 0.000000000000000000, 0.000000000000000000, 1.000000000000000000 ) ) ;
#178 = VERTEX_POINT ( 'NONE', #47 ) ;
#179 = ORIENTED_EDGE ( 'NONE', *, *, #64, .T. ) ;
#180 = LOCAL_TIME ( 19, 3, 38.00000000000000000, #37 ) ;
#181 = PRODUCT_DEFINITION_SHAPE ( 'NONE', 'NONE',  #62 ) ;
#182 =( GEOMETRIC_REPRESENTATION_CONTEXT ( 3 ) GLOBAL_UNCERTAINTY_ASSIGNED_CONTEXT ( ( #52 ) ) GLOBAL_UNIT_ASSIGNED_CONTEXT ( ( #148, #244, #86 ) ) REPRESENTATION_CONTEXT ( 'NONE', 'WORKASPACE' ) );
#183 = AXIS2_PLACEMENT_3D ( 'NONE', #185, #14, #95 ) ;
#184 = CIRCLE ( 'NONE', #227, 13.00000000000000178 ) ;
#185 = CARTESIAN_POINT ( 'NONE',  ( 0.000000000000000000, 0.000000000000000000, 323.0000000000000000 ) ) ;
#186 = CC_DESIGN_APPROVAL ( #30, ( #252 ) ) ;
#187 = CARTESIAN_POINT ( 'NONE',  ( 13.00000000000000178, 1.592040838891559293E-15, 8.000000000000000000 ) ) ;
#188 = DIRECTION ( 'NONE',  ( 1.000000000000000000, 0.000000000000000000, 0.000000000000000000 ) ) ;
#189 = ADVANCED_FACE ( 'NONE', ( #243 ), #65, .T. ) ;
#190 = APPLICATION_PROTOCOL_DEFINITION ( 'international standard', 'config_control_design', 1994, #91 ) ;
#191 = FACE_OUTER_BOUND ( 'NONE', #246, .T. ) ;
#192 = VECTOR ( 'NONE', #195, 1000.000000000000000 ) ;
#193 = CALENDAR_DATE ( 2022, 7, 7 ) ;
#194 = CARTESIAN_POINT ( 'NONE',  ( 10.00000000000000178, 1.224646799147353454E-15, 323.0000000000000000 ) ) ;
#195 = DIRECTION ( 'NONE',  ( -0.000000000000000000, -0.000000000000000000, -1.000000000000000000 ) ) ;
#196 = APPROVAL_ROLE ( '' ) ;
#197 = CARTESIAN_POINT ( 'NONE',  ( 0.000000000000000000, 0.000000000000000000, 0.000000000000000000 ) ) ;
#198 = EDGE_LOOP ( 'NONE', ( #48, #89 ) ) ;
#199 = DATE_TIME_ROLE ( 'classification_date' ) ;
#200 = DIRECTION ( 'NONE',  ( 1.000000000000000000, 0.000000000000000000, 0.000000000000000000 ) ) ;
#201 = ORIENTED_EDGE ( 'NONE', *, *, #234, .T. ) ;
#202 = DESIGN_CONTEXT ( 'detailed design', #91, 'design' ) ;
#203 = CARTESIAN_POINT ( 'NONE',  ( 0.000000000000000000, 0.000000000000000000, 8.000000000000000000 ) ) ;
#204 = APPROVAL ( #138, 'NEURÈENÝ' ) ;
#205 = ORIENTED_EDGE ( 'NONE', *, *, #94, .T. ) ;
#206 = ADVANCED_FACE ( 'NONE', ( #220 ), #66, .T. ) ;
#207 = ORIENTED_EDGE ( 'NONE', *, *, #212, .F. ) ;
#208 = VERTEX_POINT ( 'NONE', #28 ) ;
#209 = AXIS2_PLACEMENT_3D ( 'NONE', #143, #104, #245 ) ;
#210 = MANIFOLD_SOLID_BREP ( 'Pøidat vysunutím3', #51 ) ;
#211 = CIRCLE ( 'NONE', #10, 10.00000000000000178 ) ;
#212 = EDGE_CURVE ( 'NONE', #72, #178, #70, .T. ) ;
#213 = ORIENTED_EDGE ( 'NONE', *, *, #64, .F. ) ;
#214 = CARTESIAN_POINT ( 'NONE',  ( 0.000000000000000000, 0.000000000000000000, 0.000000000000000000 ) ) ;
#215 = DIRECTION ( 'NONE',  ( -1.000000000000000000, 0.000000000000000000, 0.000000000000000000 ) ) ;
#216 = CALENDAR_DATE ( 2022, 7, 7 ) ;
#217 = CARTESIAN_POINT ( 'NONE',  ( 0.000000000000000000, 0.000000000000000000, 8.000000000000000000 ) ) ;
#218 = APPROVAL_STATUS ( 'not_yet_approved' ) ;
#219 = ORIENTED_EDGE ( 'NONE', *, *, #94, .F. ) ;
#220 = FACE_OUTER_BOUND ( 'NONE', #18, .T. ) ;
#221 = APPROVAL_ROLE ( '' ) ;
#222 = APPLICATION_PROTOCOL_DEFINITION ( 'international standard', 'config_control_design', 1994, #50 ) ;
#223 = CALENDAR_DATE ( 2022, 7, 7 ) ;
#224 = DIRECTION ( 'NONE',  ( -1.000000000000000000, 0.000000000000000000, 0.000000000000000000 ) ) ;
#225 = COORDINATED_UNIVERSAL_TIME_OFFSET ( 1, 0, .AHEAD. ) ;
#226 = VERTEX_POINT ( 'NONE', #163 ) ;
#227 = AXIS2_PLACEMENT_3D ( 'NONE', #236, #167, #240 ) ;
#228 = AXIS2_PLACEMENT_3D ( 'NONE', #128, #67, #224 ) ;
#229 = VECTOR ( 'NONE', #60, 1000.000000000000000 ) ;
#230 = DIRECTION ( 'NONE',  ( -1.000000000000000000, 0.000000000000000000, 0.000000000000000000 ) ) ;
#231 = ORIENTED_EDGE ( 'NONE', *, *, #13, .F. ) ;
#232 = AXIS2_PLACEMENT_3D ( 'NONE', #217, #63, #253 ) ;
#233 = LOCAL_TIME ( 19, 3, 38.00000000000000000, #174 ) ;
#234 = EDGE_CURVE ( 'NONE', #112, #226, #88, .T. ) ;
#235 = CYLINDRICAL_SURFACE ( 'NONE', #101, 13.00000000000000178 ) ;
#236 = CARTESIAN_POINT ( 'NONE',  ( 0.000000000000000000, 0.000000000000000000, 8.000000000000000000 ) ) ;
#237 = PERSON_AND_ORGANIZATION ( #92, #135 ) ;
#238 = ORIENTED_EDGE ( 'NONE', *, *, #234, .F. ) ;
#239 = DATE_AND_TIME ( #61, #77 ) ;
#240 = DIRECTION ( 'NONE',  ( 1.000000000000000000, 0.000000000000000000, 0.000000000000000000 ) ) ;
#241 = AXIS2_PLACEMENT_3D ( 'NONE', #197, #25, #105 ) ;
#242 = FACE_OUTER_BOUND ( 'NONE', #116, .T. ) ;
#243 = FACE_OUTER_BOUND ( 'NONE', #156, .T. ) ;
#244 =( NAMED_UNIT ( * ) PLANE_ANGLE_UNIT ( ) SI_UNIT ( $, .RADIAN. ) );
#245 = DIRECTION ( 'NONE',  ( 1.000000000000000000, 0.000000000000000000, -0.000000000000000000 ) ) ;
#246 = EDGE_LOOP ( 'NONE', ( #231, #165, #205, #213 ) ) ;
#247 = APPROVAL_PERSON_ORGANIZATION ( #41, #30, #79 ) ;
#248 = DIRECTION ( 'NONE',  ( 1.000000000000000000, 0.000000000000000000, 0.000000000000000000 ) ) ;
#249 = CARTESIAN_POINT ( 'NONE',  ( -10.00000000000000178, 0.000000000000000000, 323.0000000000000000 ) ) ;
#250 = CC_DESIGN_SECURITY_CLASSIFICATION ( #38, ( #252 ) ) ;
#251 = CARTESIAN_POINT ( 'NONE',  ( 10.00000000000000178, 1.224646799147353454E-15, 323.0000000000000000 ) ) ;
#252 = PRODUCT_DEFINITION_FORMATION_WITH_SPECIFIED_SOURCE ( 'LIBOVOLNÝ', '', #142, .NOT_KNOWN. ) ;
#253 = DIRECTION ( 'NONE',  ( 1.000000000000000000, 0.000000000000000000, 0.000000000000000000 ) ) ;
#254 = DATE_AND_TIME ( #216, #233 ) ;
#255 = EDGE_CURVE ( 'NONE', #46, #72, #211, .T. ) ;
ENDSEC;
END-ISO-10303-21;
