ISO-10303-21;
HEADER;
FILE_DESCRIPTION (( 'STEP AP203' ),
    '1' );
FILE_NAME ('f6cb.STEP',
    '2022-07-07T17:30:55',
    ( '' ),
    ( '' ),
    'SwSTEP 2.0',
    'SolidWorks 2019',
    '' );
FILE_SCHEMA (( 'CONFIG_CONTROL_DESIGN' ));
ENDSEC;

DATA;
#1 = DATE_AND_TIME ( #219, #129 ) ;
#2 = ORIENTED_EDGE ( 'NONE', *, *, #70, .F. ) ;
#3 = COORDINATED_UNIVERSAL_TIME_OFFSET ( 1, 0, .AHEAD. ) ;
#4 = EDGE_LOOP ( 'NONE', ( #170, #208 ) ) ;
#5 = CIRCLE ( 'NONE', #254, 4.250000000000000000 ) ;
#6 = FACE_OUTER_BOUND ( 'NONE', #146, .T. ) ;
#7 = EDGE_LOOP ( 'NONE', ( #62, #221, #64, #141 ) ) ;
#8 = EDGE_CURVE ( 'NONE', #65, #247, #173, .T. ) ;
#9 = LINE ( 'NONE', #228, #234 ) ;
#10 = VERTEX_POINT ( 'NONE', #31 ) ;
#11 = LOCAL_TIME ( 19, 30, 55.00000000000000000, #77 ) ;
#12 = CARTESIAN_POINT ( 'NONE',  ( 0.000000000000000000, 0.000000000000000000, 0.000000000000000000 ) ) ;
#13 = DIRECTION ( 'NONE',  ( -0.000000000000000000, -0.000000000000000000, -1.000000000000000000 ) ) ;
#14 = CIRCLE ( 'NONE', #78, 4.250000000000000000 ) ;
#15 = AXIS2_PLACEMENT_3D ( 'NONE', #134, #34, #113 ) ;
#16 = CARTESIAN_POINT ( 'NONE',  ( 0.000000000000000000, 0.000000000000000000, 130.0000000000000000 ) ) ;
#17 = CARTESIAN_POINT ( 'NONE',  ( -4.250000000000000000, 0.000000000000000000, 5.000000000000000000 ) ) ;
#18 = APPROVAL ( #56, 'NEURÈENÝ' ) ;
#19 = CARTESIAN_POINT ( 'NONE',  ( 0.000000000000000000, 0.000000000000000000, 0.000000000000000000 ) ) ;
#20 = APPROVAL_ROLE ( '' ) ;
#21 = EDGE_CURVE ( 'NONE', #242, #45, #167, .T. ) ;
#22 = APPROVAL_ROLE ( '' ) ;
#23 = VERTEX_POINT ( 'NONE', #85 ) ;
#24 = ORIENTED_EDGE ( 'NONE', *, *, #233, .T. ) ;
#25 = DIRECTION ( 'NONE',  ( 0.000000000000000000, 0.000000000000000000, 1.000000000000000000 ) ) ;
#26 = EDGE_CURVE ( 'NONE', #174, #10, #156, .T. ) ;
#27 = DIRECTION ( 'NONE',  ( 1.000000000000000000, 0.000000000000000000, 0.000000000000000000 ) ) ;
#28 = PRODUCT ( 'f6cb', 'f6cb', '', ( #251 ) ) ;
#29 = DIRECTION ( 'NONE',  ( 0.000000000000000000, 0.000000000000000000, 1.000000000000000000 ) ) ;
#30 = CC_DESIGN_APPROVAL ( #18, ( #95 ) ) ;
#31 = CARTESIAN_POINT ( 'NONE',  ( 7.000000000000000000, 8.572527594031473190E-16, 0.000000000000000000 ) ) ;
#32 = ADVANCED_FACE ( 'NONE', ( #6 ), #111, .T. ) ;
#33 = AXIS2_PLACEMENT_3D ( 'NONE', #12, #89, #178 ) ;
#34 = DIRECTION ( 'NONE',  ( 0.000000000000000000, 0.000000000000000000, 1.000000000000000000 ) ) ;
#35 = APPLICATION_PROTOCOL_DEFINITION ( 'international standard', 'config_control_design', 1994, #79 ) ;
#36 = PERSON_AND_ORGANIZATION_ROLE ( 'design_owner' ) ;
#37 = CALENDAR_DATE ( 2022, 7, 7 ) ;
#38 = DATE_TIME_ROLE ( 'classification_date' ) ;
#39 = VECTOR ( 'NONE', #49, 1000.000000000000000 ) ;
#40 = PRODUCT_DEFINITION_SHAPE ( 'NONE', 'NONE',  #199 ) ;
#41 = ORIENTED_EDGE ( 'NONE', *, *, #218, .T. ) ;
#42 = FACE_OUTER_BOUND ( 'NONE', #4, .T. ) ;
#43 = ADVANCED_BREP_SHAPE_REPRESENTATION ( 'f6cb', ( #136, #171 ), #154 ) ;
#44 = LOCAL_TIME ( 19, 30, 55.00000000000000000, #120 ) ;
#45 = VERTEX_POINT ( 'NONE', #63 ) ;
#46 = DIRECTION ( 'NONE',  ( -0.000000000000000000, -0.000000000000000000, -1.000000000000000000 ) ) ;
#47 = DIRECTION ( 'NONE',  ( 1.000000000000000000, 0.000000000000000000, 0.000000000000000000 ) ) ;
#48 = AXIS2_PLACEMENT_3D ( 'NONE', #206, #207, #107 ) ;
#49 = DIRECTION ( 'NONE',  ( -0.000000000000000000, -0.000000000000000000, -1.000000000000000000 ) ) ;
#50 = LINE ( 'NONE', #192, #39 ) ;
#51 = ADVANCED_FACE ( 'NONE', ( #246 ), #148, .T. ) ;
#52 = CARTESIAN_POINT ( 'NONE',  ( -7.000000000000000000, 0.000000000000000000, 0.000000000000000000 ) ) ;
#53 = CARTESIAN_POINT ( 'NONE',  ( 0.000000000000000000, 0.000000000000000000, 5.000000000000000000 ) ) ;
#54 = VECTOR ( 'NONE', #93, 1000.000000000000000 ) ;
#55 = CC_DESIGN_DATE_AND_TIME_ASSIGNMENT ( #59, #237, ( #199 ) ) ;
#56 = APPROVAL_STATUS ( 'not_yet_approved' ) ;
#57 = PERSON_AND_ORGANIZATION_ROLE ( 'design_supplier' ) ;
#58 = EDGE_LOOP ( 'NONE', ( #108, #122, #244, #223 ) ) ;
#59 = DATE_AND_TIME ( #240, #250 ) ;
#60 = ORIENTED_EDGE ( 'NONE', *, *, #67, .F. ) ;
#61 = FACE_OUTER_BOUND ( 'NONE', #58, .T. ) ;
#62 = ORIENTED_EDGE ( 'NONE', *, *, #8, .F. ) ;
#63 = CARTESIAN_POINT ( 'NONE',  ( 7.000000000000000000, 8.572527594031473190E-16, 5.000000000000000000 ) ) ;
#64 = ORIENTED_EDGE ( 'NONE', *, *, #116, .T. ) ;
#65 = VERTEX_POINT ( 'NONE', #123 ) ;
#66 = DIRECTION ( 'NONE',  ( -0.000000000000000000, -0.000000000000000000, -1.000000000000000000 ) ) ;
#67 = EDGE_CURVE ( 'NONE', #45, #242, #201, .T. ) ;
#68 = DIRECTION ( 'NONE',  ( 0.000000000000000000, 0.000000000000000000, 1.000000000000000000 ) ) ;
#69 = APPROVAL_PERSON_ORGANIZATION ( #195, #158, #182 ) ;
#70 = EDGE_CURVE ( 'NONE', #242, #174, #9, .T. ) ;
#71 = CARTESIAN_POINT ( 'NONE',  ( 0.000000000000000000, 0.000000000000000000, 130.0000000000000000 ) ) ;
#72 = AXIS2_PLACEMENT_3D ( 'NONE', #243, #68, #153 ) ;
#73 = CYLINDRICAL_SURFACE ( 'NONE', #138, 4.250000000000000000 ) ;
#74 = EDGE_CURVE ( 'NONE', #203, #247, #14, .T. ) ;
#75 = AXIS2_PLACEMENT_3D ( 'NONE', #16, #133, #181 ) ;
#76 = CC_DESIGN_PERSON_AND_ORGANIZATION_ASSIGNMENT ( #161, #36, ( #28 ) ) ;
#77 = COORDINATED_UNIVERSAL_TIME_OFFSET ( 1, 0, .AHEAD. ) ;
#78 = AXIS2_PLACEMENT_3D ( 'NONE', #248, #90, #47 ) ;
#79 = APPLICATION_CONTEXT ( 'configuration controlled 3d designs of mechanical parts and assemblies' ) ;
#80 = PERSON_AND_ORGANIZATION ( #253, #239 ) ;
#81 = ORIENTED_EDGE ( 'NONE', *, *, #180, .T. ) ;
#82 = APPROVAL_STATUS ( 'not_yet_approved' ) ;
#83 = ORIENTED_EDGE ( 'NONE', *, *, #21, .T. ) ;
#84 = PERSON_AND_ORGANIZATION_ROLE ( 'classification_officer' ) ;
#85 = CARTESIAN_POINT ( 'NONE',  ( -4.250000000000000000, 0.000000000000000000, 130.0000000000000000 ) ) ;
#86 = DIRECTION ( 'NONE',  ( 0.000000000000000000, 0.000000000000000000, 1.000000000000000000 ) ) ;
#87 = AXIS2_PLACEMENT_3D ( 'NONE', #210, #66, #152 ) ;
#88 = EDGE_LOOP ( 'NONE', ( #238, #225 ) ) ;
#89 = DIRECTION ( 'NONE',  ( 0.000000000000000000, 0.000000000000000000, 1.000000000000000000 ) ) ;
#90 = DIRECTION ( 'NONE',  ( 0.000000000000000000, 0.000000000000000000, 1.000000000000000000 ) ) ;
#91 = AXIS2_PLACEMENT_3D ( 'NONE', #190, #86, #188 ) ;
#92 = DIRECTION ( 'NONE',  ( 1.000000000000000000, 0.000000000000000000, 0.000000000000000000 ) ) ;
#93 = DIRECTION ( 'NONE',  ( -0.000000000000000000, -0.000000000000000000, -1.000000000000000000 ) ) ;
#94 = DIRECTION ( 'NONE',  ( 1.000000000000000000, 0.000000000000000000, 0.000000000000000000 ) ) ;
#95 = PRODUCT_DEFINITION_FORMATION_WITH_SPECIFIED_SOURCE ( 'LIBOVOLNÝ', '', #28, .NOT_KNOWN. ) ;
#96 = CC_DESIGN_PERSON_AND_ORGANIZATION_ASSIGNMENT ( #166, #169, ( #95 ) ) ;
#97 = DIRECTION ( 'NONE',  ( 0.000000000000000000, 0.000000000000000000, 1.000000000000000000 ) ) ;
#98 = ADVANCED_FACE ( 'NONE', ( #42 ), #126, .F. ) ;
#99 = APPROVAL_PERSON_ORGANIZATION ( #137, #18, #20 ) ;
#100 = PERSON_AND_ORGANIZATION ( #253, #239 ) ;
#101 = SHAPE_DEFINITION_REPRESENTATION ( #40, #43 ) ;
#102 = ORIENTED_EDGE ( 'NONE', *, *, #67, .T. ) ;
#103 = CC_DESIGN_APPROVAL ( #236, ( #164 ) ) ;
#104 = DATE_AND_TIME ( #185, #205 ) ;
#105 = DIRECTION ( 'NONE',  ( -0.000000000000000000, -0.000000000000000000, -1.000000000000000000 ) ) ;
#106 = VECTOR ( 'NONE', #105, 1000.000000000000000 ) ;
#107 = DIRECTION ( 'NONE',  ( 1.000000000000000000, 0.000000000000000000, 0.000000000000000000 ) ) ;
#108 = ORIENTED_EDGE ( 'NONE', *, *, #218, .F. ) ;
#109 = CC_DESIGN_PERSON_AND_ORGANIZATION_ASSIGNMENT ( #80, #142, ( #199 ) ) ;
#110 = DIRECTION ( 'NONE',  ( 1.000000000000000000, 0.000000000000000000, -0.000000000000000000 ) ) ;
#111 = PLANE ( 'NONE',  #72 ) ;
#112 = CARTESIAN_POINT ( 'NONE',  ( 0.000000000000000000, 0.000000000000000000, 130.0000000000000000 ) ) ;
#113 = DIRECTION ( 'NONE',  ( 1.000000000000000000, 0.000000000000000000, -0.000000000000000000 ) ) ;
#114 = CARTESIAN_POINT ( 'NONE',  ( 7.000000000000000000, 8.572527594031473190E-16, 5.000000000000000000 ) ) ;
#115 = APPLICATION_CONTEXT ( 'configuration controlled 3d designs of mechanical parts and assemblies' ) ;
#116 = EDGE_CURVE ( 'NONE', #23, #203, #50, .T. ) ;
#117 = DATE_AND_TIME ( #37, #44 ) ;
#118 = APPROVAL_DATE_TIME ( #1, #18 ) ;
#119 = ORIENTED_EDGE ( 'NONE', *, *, #168, .T. ) ;
#120 = COORDINATED_UNIVERSAL_TIME_OFFSET ( 1, 0, .AHEAD. ) ;
#121 = FACE_BOUND ( 'NONE', #88, .T. ) ;
#122 = ORIENTED_EDGE ( 'NONE', *, *, #21, .F. ) ;
#123 = CARTESIAN_POINT ( 'NONE',  ( 4.250000000000000000, 5.204748896376250699E-16, 130.0000000000000000 ) ) ;
#124 = EDGE_CURVE ( 'NONE', #10, #174, #144, .T. ) ;
#125 = EDGE_LOOP ( 'NONE', ( #83, #102 ) ) ;
#126 = PLANE ( 'NONE',  #162 ) ;
#127 = CC_DESIGN_PERSON_AND_ORGANIZATION_ASSIGNMENT ( #220, #84, ( #164 ) ) ;
#128 = CARTESIAN_POINT ( 'NONE',  ( 0.000000000000000000, 0.000000000000000000, 0.000000000000000000 ) ) ;
#129 = LOCAL_TIME ( 19, 30, 55.00000000000000000, #139 ) ;
#130 =( NAMED_UNIT ( * ) SI_UNIT ( $, .STERADIAN. ) SOLID_ANGLE_UNIT ( ) );
#131 = CC_DESIGN_DATE_AND_TIME_ASSIGNMENT ( #104, #38, ( #164 ) ) ;
#132 = DIRECTION ( 'NONE',  ( -1.000000000000000000, 0.000000000000000000, 0.000000000000000000 ) ) ;
#133 = DIRECTION ( 'NONE',  ( 0.000000000000000000, 0.000000000000000000, 1.000000000000000000 ) ) ;
#134 = CARTESIAN_POINT ( 'NONE',  ( 0.000000000000000000, 0.000000000000000000, 5.000000000000000000 ) ) ;
#135 = ADVANCED_FACE ( 'NONE', ( #177 ), #227, .T. ) ;
#136 = MANIFOLD_SOLID_BREP ( 'Pøidat vysunutím3', #211 ) ;
#137 = PERSON_AND_ORGANIZATION ( #253, #239 ) ;
#138 = AXIS2_PLACEMENT_3D ( 'NONE', #71, #159, #132 ) ;
#139 = COORDINATED_UNIVERSAL_TIME_OFFSET ( 1, 0, .AHEAD. ) ;
#140 = ADVANCED_FACE ( 'NONE', ( #61 ), #145, .T. ) ;
#141 = ORIENTED_EDGE ( 'NONE', *, *, #74, .T. ) ;
#142 = PERSON_AND_ORGANIZATION_ROLE ( 'creator' ) ;
#143 = EDGE_LOOP ( 'NONE', ( #60, #41, #150, #2 ) ) ;
#144 = CIRCLE ( 'NONE', #33, 7.000000000000000000 ) ;
#145 = CYLINDRICAL_SURFACE ( 'NONE', #149, 7.000000000000000000 ) ;
#146 = EDGE_LOOP ( 'NONE', ( #24, #81 ) ) ;
#147 = ADVANCED_FACE ( 'NONE', ( #121, #212 ), #230, .T. ) ;
#148 = CYLINDRICAL_SURFACE ( 'NONE', #194, 7.000000000000000000 ) ;
#149 = AXIS2_PLACEMENT_3D ( 'NONE', #193, #13, #222 ) ;
#150 = ORIENTED_EDGE ( 'NONE', *, *, #124, .T. ) ;
#151 = DIRECTION ( 'NONE',  ( -1.000000000000000000, 0.000000000000000000, 0.000000000000000000 ) ) ;
#152 = DIRECTION ( 'NONE',  ( -1.000000000000000000, 0.000000000000000000, 0.000000000000000000 ) ) ;
#153 = DIRECTION ( 'NONE',  ( 1.000000000000000000, 0.000000000000000000, -0.000000000000000000 ) ) ;
#154 =( GEOMETRIC_REPRESENTATION_CONTEXT ( 3 ) GLOBAL_UNCERTAINTY_ASSIGNED_CONTEXT ( ( #209 ) ) GLOBAL_UNIT_ASSIGNED_CONTEXT ( ( #232, #252, #130 ) ) REPRESENTATION_CONTEXT ( 'NONE', 'WORKASPACE' ) );
#155 = CARTESIAN_POINT ( 'NONE',  ( 4.250000000000000000, 5.204748896376250699E-16, 5.000000000000000000 ) ) ;
#156 = CIRCLE ( 'NONE', #189, 7.000000000000000000 ) ;
#157 = FACE_OUTER_BOUND ( 'NONE', #176, .T. ) ;
#158 = APPROVAL ( #179, 'NEURÈENÝ' ) ;
#159 = DIRECTION ( 'NONE',  ( -0.000000000000000000, -0.000000000000000000, -1.000000000000000000 ) ) ;
#160 = PRODUCT_RELATED_PRODUCT_CATEGORY ( 'detail', '', ( #28 ) ) ;
#161 = PERSON_AND_ORGANIZATION ( #253, #239 ) ;
#162 = AXIS2_PLACEMENT_3D ( 'NONE', #128, #29, #110 ) ;
#163 = DIRECTION ( 'NONE',  ( 1.000000000000000000, 0.000000000000000000, 0.000000000000000000 ) ) ;
#164 = SECURITY_CLASSIFICATION ( '', '', #198 ) ;
#165 = APPROVAL_DATE_TIME ( #184, #158 ) ;
#166 = PERSON_AND_ORGANIZATION ( #253, #239 ) ;
#167 = CIRCLE ( 'NONE', #91, 7.000000000000000000 ) ;
#168 = EDGE_CURVE ( 'NONE', #247, #203, #5, .T. ) ;
#169 = PERSON_AND_ORGANIZATION_ROLE ( 'creator' ) ;
#170 = ORIENTED_EDGE ( 'NONE', *, *, #26, .F. ) ;
#171 = AXIS2_PLACEMENT_3D ( 'NONE', #19, #214, #92 ) ;
#172 = ORIENTED_EDGE ( 'NONE', *, *, #116, .F. ) ;
#173 = LINE ( 'NONE', #175, #106 ) ;
#174 = VERTEX_POINT ( 'NONE', #52 ) ;
#175 = CARTESIAN_POINT ( 'NONE',  ( 4.250000000000000000, 5.204748896376250699E-16, 130.0000000000000000 ) ) ;
#176 = EDGE_LOOP ( 'NONE', ( #241, #191, #119, #172 ) ) ;
#177 = FACE_OUTER_BOUND ( 'NONE', #7, .T. ) ;
#178 = DIRECTION ( 'NONE',  ( 1.000000000000000000, 0.000000000000000000, 0.000000000000000000 ) ) ;
#179 = APPROVAL_STATUS ( 'not_yet_approved' ) ;
#180 = EDGE_CURVE ( 'NONE', #65, #23, #213, .T. ) ;
#181 = DIRECTION ( 'NONE',  ( 1.000000000000000000, 0.000000000000000000, 0.000000000000000000 ) ) ;
#182 = APPROVAL_ROLE ( '' ) ;
#183 = CC_DESIGN_SECURITY_CLASSIFICATION ( #164, ( #95 ) ) ;
#184 = DATE_AND_TIME ( #202, #11 ) ;
#185 = CALENDAR_DATE ( 2022, 7, 7 ) ;
#186 = AXIS2_PLACEMENT_3D ( 'NONE', #112, #215, #163 ) ;
#187 = DESIGN_CONTEXT ( 'detailed design', #115, 'design' ) ;
#188 = DIRECTION ( 'NONE',  ( 1.000000000000000000, 0.000000000000000000, 0.000000000000000000 ) ) ;
#189 = AXIS2_PLACEMENT_3D ( 'NONE', #249, #25, #27 ) ;
#190 = CARTESIAN_POINT ( 'NONE',  ( 0.000000000000000000, 0.000000000000000000, 5.000000000000000000 ) ) ;
#191 = ORIENTED_EDGE ( 'NONE', *, *, #8, .T. ) ;
#192 = CARTESIAN_POINT ( 'NONE',  ( -4.250000000000000000, 0.000000000000000000, 130.0000000000000000 ) ) ;
#193 = CARTESIAN_POINT ( 'NONE',  ( 0.000000000000000000, 0.000000000000000000, 5.000000000000000000 ) ) ;
#194 = AXIS2_PLACEMENT_3D ( 'NONE', #224, #46, #151 ) ;
#195 = PERSON_AND_ORGANIZATION ( #253, #239 ) ;
#196 = ADVANCED_FACE ( 'NONE', ( #157 ), #73, .T. ) ;
#197 = APPLICATION_PROTOCOL_DEFINITION ( 'international standard', 'config_control_design', 1994, #115 ) ;
#198 = SECURITY_CLASSIFICATION_LEVEL ( 'unclassified' ) ;
#199 = PRODUCT_DEFINITION ( 'NEZNÁMÝ', '', #95, #187 ) ;
#200 = APPROVAL_DATE_TIME ( #117, #236 ) ;
#201 = CIRCLE ( 'NONE', #48, 7.000000000000000000 ) ;
#202 = CALENDAR_DATE ( 2022, 7, 7 ) ;
#203 = VERTEX_POINT ( 'NONE', #17 ) ;
#204 = PERSON_AND_ORGANIZATION ( #253, #239 ) ;
#205 = LOCAL_TIME ( 19, 30, 55.00000000000000000, #3 ) ;
#206 = CARTESIAN_POINT ( 'NONE',  ( 0.000000000000000000, 0.000000000000000000, 5.000000000000000000 ) ) ;
#207 = DIRECTION ( 'NONE',  ( 0.000000000000000000, 0.000000000000000000, 1.000000000000000000 ) ) ;
#208 = ORIENTED_EDGE ( 'NONE', *, *, #124, .F. ) ;
#209 = UNCERTAINTY_MEASURE_WITH_UNIT (LENGTH_MEASURE( 1.000000000000000082E-05 ), #232, 'distance_accuracy_value', 'NONE');
#210 = CARTESIAN_POINT ( 'NONE',  ( 0.000000000000000000, 0.000000000000000000, 130.0000000000000000 ) ) ;
#211 = CLOSED_SHELL ( 'NONE', ( #196, #51, #140, #147, #98, #135, #32 ) ) ;
#212 = FACE_OUTER_BOUND ( 'NONE', #125, .T. ) ;
#213 = CIRCLE ( 'NONE', #186, 4.250000000000000000 ) ;
#214 = DIRECTION ( 'NONE',  ( 0.000000000000000000, 0.000000000000000000, 1.000000000000000000 ) ) ;
#215 = DIRECTION ( 'NONE',  ( 0.000000000000000000, 0.000000000000000000, 1.000000000000000000 ) ) ;
#216 = CC_DESIGN_APPROVAL ( #158, ( #199 ) ) ;
#217 = CC_DESIGN_PERSON_AND_ORGANIZATION_ASSIGNMENT ( #204, #57, ( #95 ) ) ;
#218 = EDGE_CURVE ( 'NONE', #45, #10, #229, .T. ) ;
#219 = CALENDAR_DATE ( 2022, 7, 7 ) ;
#220 = PERSON_AND_ORGANIZATION ( #253, #239 ) ;
#221 = ORIENTED_EDGE ( 'NONE', *, *, #233, .F. ) ;
#222 = DIRECTION ( 'NONE',  ( -1.000000000000000000, 0.000000000000000000, 0.000000000000000000 ) ) ;
#223 = ORIENTED_EDGE ( 'NONE', *, *, #26, .T. ) ;
#224 = CARTESIAN_POINT ( 'NONE',  ( 0.000000000000000000, 0.000000000000000000, 5.000000000000000000 ) ) ;
#225 = ORIENTED_EDGE ( 'NONE', *, *, #168, .F. ) ;
#226 = DIRECTION ( 'NONE',  ( -0.000000000000000000, -0.000000000000000000, -1.000000000000000000 ) ) ;
#227 = CYLINDRICAL_SURFACE ( 'NONE', #87, 4.250000000000000000 ) ;
#228 = CARTESIAN_POINT ( 'NONE',  ( -7.000000000000000000, 0.000000000000000000, 5.000000000000000000 ) ) ;
#229 = LINE ( 'NONE', #114, #54 ) ;
#230 = PLANE ( 'NONE',  #15 ) ;
#231 = CIRCLE ( 'NONE', #75, 4.250000000000000000 ) ;
#232 =( LENGTH_UNIT ( ) NAMED_UNIT ( * ) SI_UNIT ( .MILLI., .METRE. ) );
#233 = EDGE_CURVE ( 'NONE', #23, #65, #231, .T. ) ;
#234 = VECTOR ( 'NONE', #226, 1000.000000000000000 ) ;
#235 = CARTESIAN_POINT ( 'NONE',  ( -7.000000000000000000, 0.000000000000000000, 5.000000000000000000 ) ) ;
#236 = APPROVAL ( #82, 'NEURÈENÝ' ) ;
#237 = DATE_TIME_ROLE ( 'creation_date' ) ;
#238 = ORIENTED_EDGE ( 'NONE', *, *, #74, .F. ) ;
#239 = ORGANIZATION ( 'NEURÈENÝ', 'NEURÈENÝ', '' ) ;
#240 = CALENDAR_DATE ( 2022, 7, 7 ) ;
#241 = ORIENTED_EDGE ( 'NONE', *, *, #180, .F. ) ;
#242 = VERTEX_POINT ( 'NONE', #235 ) ;
#243 = CARTESIAN_POINT ( 'NONE',  ( 0.000000000000000000, 0.000000000000000000, 130.0000000000000000 ) ) ;
#244 = ORIENTED_EDGE ( 'NONE', *, *, #70, .T. ) ;
#245 = APPROVAL_PERSON_ORGANIZATION ( #100, #236, #22 ) ;
#246 = FACE_OUTER_BOUND ( 'NONE', #143, .T. ) ;
#247 = VERTEX_POINT ( 'NONE', #155 ) ;
#248 = CARTESIAN_POINT ( 'NONE',  ( 0.000000000000000000, 0.000000000000000000, 5.000000000000000000 ) ) ;
#249 = CARTESIAN_POINT ( 'NONE',  ( 0.000000000000000000, 0.000000000000000000, 0.000000000000000000 ) ) ;
#250 = LOCAL_TIME ( 19, 30, 55.00000000000000000, #255 ) ;
#251 = MECHANICAL_CONTEXT ( 'NONE', #79, 'mechanical' ) ;
#252 =( NAMED_UNIT ( * ) PLANE_ANGLE_UNIT ( ) SI_UNIT ( $, .RADIAN. ) );
#253 = PERSON ( 'NEURÈENÝ', 'NEURÈENÝ', 'NEURÈENÝ', ('NEURÈENÝ'), ('NEURÈENÝ'), ('NEURÈENÝ') ) ;
#254 = AXIS2_PLACEMENT_3D ( 'NONE', #53, #97, #94 ) ;
#255 = COORDINATED_UNIVERSAL_TIME_OFFSET ( 1, 0, .AHEAD. ) ;
ENDSEC;
END-ISO-10303-21;
