ISO-10303-21;
HEADER;
FILE_DESCRIPTION (( 'STEP AP203' ),
    '1' );
FILE_NAME ('e081.STEP',
    '2023-02-13T16:25:50',
    ( '' ),
    ( '' ),
    'SwSTEP 2.0',
    'SolidWorks 2019',
    '' );
FILE_SCHEMA (( 'CONFIG_CONTROL_DESIGN' ));
ENDSEC;

DATA;
#1 = DATE_AND_TIME ( #180, #58 ) ;
#2 = CARTESIAN_POINT ( 'NONE',  ( 0.000000000000000000, 0.000000000000000000, 125.0000000000000000 ) ) ;
#3 = DIRECTION ( 'NONE',  ( 1.000000000000000000, 0.000000000000000000, 0.000000000000000000 ) ) ;
#4 = PRODUCT_DEFINITION_SHAPE ( 'NONE', 'NONE',  #52 ) ;
#5 = PLANE ( 'NONE',  #32 ) ;
#6 = PRODUCT_RELATED_PRODUCT_CATEGORY ( 'detail', '', ( #177 ) ) ;
#7 = DIRECTION ( 'NONE',  ( 1.000000000000000000, 0.000000000000000000, 0.000000000000000000 ) ) ;
#8 = CARTESIAN_POINT ( 'NONE',  ( 0.000000000000000000, 0.000000000000000000, 3.000000000000000000 ) ) ;
#9 = CARTESIAN_POINT ( 'NONE',  ( -3.000000000000000444, 0.000000000000000000, 3.000000000000000000 ) ) ;
#10 = ORIENTED_EDGE ( 'NONE', *, *, #147, .T. ) ;
#11 = COORDINATED_UNIVERSAL_TIME_OFFSET ( 1, 0, .AHEAD. ) ;
#12 = FACE_OUTER_BOUND ( 'NONE', #70, .T. ) ;
#13 = CIRCLE ( 'NONE', #195, 1.600000000000000089 ) ;
#14 = PERSON_AND_ORGANIZATION ( #239, #141 ) ;
#15 = CARTESIAN_POINT ( 'NONE',  ( 1.600000000000000089, 1.959434878635764737E-16, 125.0000000000000000 ) ) ;
#16 = PERSON_AND_ORGANIZATION ( #239, #141 ) ;
#17 = CARTESIAN_POINT ( 'NONE',  ( 3.000000000000000444, 3.673940397442060361E-16, 3.000000000000000000 ) ) ;
#18 = EDGE_CURVE ( 'NONE', #102, #200, #13, .T. ) ;
#19 = DIRECTION ( 'NONE',  ( -1.000000000000000000, 0.000000000000000000, 0.000000000000000000 ) ) ;
#20 = CC_DESIGN_DATE_AND_TIME_ASSIGNMENT ( #42, #203, ( #52 ) ) ;
#21 = ORIENTED_EDGE ( 'NONE', *, *, #238, .T. ) ;
#22 = AXIS2_PLACEMENT_3D ( 'NONE', #233, #197, #196 ) ;
#23 = APPROVAL_PERSON_ORGANIZATION ( #14, #164, #170 ) ;
#24 = APPLICATION_PROTOCOL_DEFINITION ( 'international standard', 'config_control_design', 1994, #144 ) ;
#25 =( LENGTH_UNIT ( ) NAMED_UNIT ( * ) SI_UNIT ( .MILLI., .METRE. ) );
#26 = DIRECTION ( 'NONE',  ( 1.000000000000000000, 0.000000000000000000, -0.000000000000000000 ) ) ;
#27 = CARTESIAN_POINT ( 'NONE',  ( 0.000000000000000000, 0.000000000000000000, 3.000000000000000000 ) ) ;
#28 = AXIS2_PLACEMENT_3D ( 'NONE', #231, #50, #189 ) ;
#29 = PERSON_AND_ORGANIZATION ( #239, #141 ) ;
#30 = CARTESIAN_POINT ( 'NONE',  ( -1.600000000000000089, 0.000000000000000000, 125.0000000000000000 ) ) ;
#31 = FACE_OUTER_BOUND ( 'NONE', #242, .T. ) ;
#32 = AXIS2_PLACEMENT_3D ( 'NONE', #93, #204, #26 ) ;
#33 = EDGE_LOOP ( 'NONE', ( #69, #139 ) ) ;
#34 = ORIENTED_EDGE ( 'NONE', *, *, #181, .F. ) ;
#35 = VECTOR ( 'NONE', #159, 1000.000000000000000 ) ;
#36 = VERTEX_POINT ( 'NONE', #229 ) ;
#37 = VECTOR ( 'NONE', #131, 1000.000000000000000 ) ;
#38 = PERSON_AND_ORGANIZATION ( #239, #141 ) ;
#39 = DIRECTION ( 'NONE',  ( 0.000000000000000000, 0.000000000000000000, 1.000000000000000000 ) ) ;
#40 = CC_DESIGN_DATE_AND_TIME_ASSIGNMENT ( #112, #190, ( #232 ) ) ;
#41 = CIRCLE ( 'NONE', #166, 3.000000000000000444 ) ;
#42 = DATE_AND_TIME ( #224, #201 ) ;
#43 = ORIENTED_EDGE ( 'NONE', *, *, #101, .F. ) ;
#44 = APPLICATION_CONTEXT ( 'configuration controlled 3d designs of mechanical parts and assemblies' ) ;
#45 = APPROVAL_ROLE ( '' ) ;
#46 = PERSON_AND_ORGANIZATION_ROLE ( 'design_owner' ) ;
#47 = EDGE_LOOP ( 'NONE', ( #150, #34, #168, #128 ) ) ;
#48 = CLOSED_SHELL ( 'NONE', ( #99, #169, #80, #138, #97, #59, #133 ) ) ;
#49 = CARTESIAN_POINT ( 'NONE',  ( 0.000000000000000000, 0.000000000000000000, 0.000000000000000000 ) ) ;
#50 = DIRECTION ( 'NONE',  ( -0.000000000000000000, -0.000000000000000000, -1.000000000000000000 ) ) ;
#51 = DIRECTION ( 'NONE',  ( 0.000000000000000000, 0.000000000000000000, 1.000000000000000000 ) ) ;
#52 = PRODUCT_DEFINITION ( 'NEZNÁMÝ', '', #95, #140 ) ;
#53 = DATE_AND_TIME ( #172, #156 ) ;
#54 = DIRECTION ( 'NONE',  ( 1.000000000000000000, 0.000000000000000000, -0.000000000000000000 ) ) ;
#55 = PERSON_AND_ORGANIZATION_ROLE ( 'creator' ) ;
#56 = DIRECTION ( 'NONE',  ( 0.000000000000000000, 0.000000000000000000, 1.000000000000000000 ) ) ;
#57 = DIRECTION ( 'NONE',  ( 0.000000000000000000, 0.000000000000000000, 1.000000000000000000 ) ) ;
#58 = LOCAL_TIME ( 17, 25, 50.00000000000000000, #206 ) ;
#59 = ADVANCED_FACE ( 'NONE', ( #182 ), #186, .T. ) ;
#60 = ORIENTED_EDGE ( 'NONE', *, *, #18, .T. ) ;
#61 = CC_DESIGN_PERSON_AND_ORGANIZATION_ASSIGNMENT ( #72, #188, ( #232 ) ) ;
#62 = ORIENTED_EDGE ( 'NONE', *, *, #121, .T. ) ;
#63 = CC_DESIGN_APPROVAL ( #228, ( #52 ) ) ;
#64 = ORIENTED_EDGE ( 'NONE', *, *, #105, .F. ) ;
#65 = ORIENTED_EDGE ( 'NONE', *, *, #111, .F. ) ;
#66 = APPROVAL_STATUS ( 'not_yet_approved' ) ;
#67 = DIRECTION ( 'NONE',  ( 0.000000000000000000, 0.000000000000000000, 1.000000000000000000 ) ) ;
#68 = AXIS2_PLACEMENT_3D ( 'NONE', #114, #245, #193 ) ;
#69 = ORIENTED_EDGE ( 'NONE', *, *, #181, .T. ) ;
#70 = EDGE_LOOP ( 'NONE', ( #219, #161, #110, #123 ) ) ;
#71 = CIRCLE ( 'NONE', #100, 1.600000000000000089 ) ;
#72 = PERSON_AND_ORGANIZATION ( #239, #141 ) ;
#73 = CALENDAR_DATE ( 2023, 13, 2 ) ;
#74 = PLANE ( 'NONE',  #255 ) ;
#75 = APPROVAL ( #165, 'NEURÈENÝ' ) ;
#76 = CALENDAR_DATE ( 2023, 13, 2 ) ;
#77 = FACE_OUTER_BOUND ( 'NONE', #94, .T. ) ;
#78 = SECURITY_CLASSIFICATION_LEVEL ( 'unclassified' ) ;
#79 = FACE_OUTER_BOUND ( 'NONE', #33, .T. ) ;
#80 = ADVANCED_FACE ( 'NONE', ( #12 ), #126, .T. ) ;
#81 = UNCERTAINTY_MEASURE_WITH_UNIT (LENGTH_MEASURE( 1.000000000000000082E-05 ), #25, 'distance_accuracy_value', 'NONE');
#82 = EDGE_CURVE ( 'NONE', #160, #129, #230, .T. ) ;
#83 = CARTESIAN_POINT ( 'NONE',  ( 3.000000000000000444, 3.673940397442060361E-16, 3.000000000000000000 ) ) ;
#84 = EDGE_LOOP ( 'NONE', ( #65, #167 ) ) ;
#85 = AXIS2_PLACEMENT_3D ( 'NONE', #8, #222, #202 ) ;
#86 = ORIENTED_EDGE ( 'NONE', *, *, #178, .T. ) ;
#87 = APPROVAL_DATE_TIME ( #1, #228 ) ;
#88 = CC_DESIGN_PERSON_AND_ORGANIZATION_ASSIGNMENT ( #29, #55, ( #95 ) ) ;
#89 = EDGE_LOOP ( 'NONE', ( #226, #106, #60, #64 ) ) ;
#90 = PERSON_AND_ORGANIZATION ( #239, #141 ) ;
#91 = CARTESIAN_POINT ( 'NONE',  ( 0.000000000000000000, 0.000000000000000000, 125.0000000000000000 ) ) ;
#92 =( GEOMETRIC_REPRESENTATION_CONTEXT ( 3 ) GLOBAL_UNCERTAINTY_ASSIGNED_CONTEXT ( ( #81 ) ) GLOBAL_UNIT_ASSIGNED_CONTEXT ( ( #25, #185, #103 ) ) REPRESENTATION_CONTEXT ( 'NONE', 'WORKASPACE' ) );
#93 = CARTESIAN_POINT ( 'NONE',  ( 0.000000000000000000, 0.000000000000000000, 0.000000000000000000 ) ) ;
#94 = EDGE_LOOP ( 'NONE', ( #243, #86, #62, #43 ) ) ;
#95 = PRODUCT_DEFINITION_FORMATION_WITH_SPECIFIED_SOURCE ( 'LIBOVOLNÝ', '', #177, .NOT_KNOWN. ) ;
#96 = APPROVAL_STATUS ( 'not_yet_approved' ) ;
#97 = ADVANCED_FACE ( 'NONE', ( #225 ), #5, .F. ) ;
#98 = LINE ( 'NONE', #15, #117 ) ;
#99 = ADVANCED_FACE ( 'NONE', ( #107 ), #184, .T. ) ;
#100 = AXIS2_PLACEMENT_3D ( 'NONE', #217, #158, #241 ) ;
#101 = EDGE_CURVE ( 'NONE', #199, #218, #137, .T. ) ;
#102 = VERTEX_POINT ( 'NONE', #251 ) ;
#103 =( NAMED_UNIT ( * ) SI_UNIT ( $, .STERADIAN. ) SOLID_ANGLE_UNIT ( ) );
#104 = AXIS2_PLACEMENT_3D ( 'NONE', #153, #51, #247 ) ;
#105 = EDGE_CURVE ( 'NONE', #129, #200, #237, .T. ) ;
#106 = ORIENTED_EDGE ( 'NONE', *, *, #151, .T. ) ;
#107 = FACE_OUTER_BOUND ( 'NONE', #89, .T. ) ;
#108 = DIRECTION ( 'NONE',  ( 1.000000000000000000, 0.000000000000000000, 0.000000000000000000 ) ) ;
#109 = EDGE_LOOP ( 'NONE', ( #122, #207 ) ) ;
#110 = ORIENTED_EDGE ( 'NONE', *, *, #101, .T. ) ;
#111 = EDGE_CURVE ( 'NONE', #218, #36, #220, .T. ) ;
#112 = DATE_AND_TIME ( #76, #119 ) ;
#113 = PLANE ( 'NONE',  #254 ) ;
#114 = CARTESIAN_POINT ( 'NONE',  ( 0.000000000000000000, 0.000000000000000000, 3.000000000000000000 ) ) ;
#115 = CARTESIAN_POINT ( 'NONE',  ( 0.000000000000000000, 0.000000000000000000, 3.000000000000000000 ) ) ;
#116 = AXIS2_PLACEMENT_3D ( 'NONE', #2, #67, #146 ) ;
#117 = VECTOR ( 'NONE', #173, 1000.000000000000000 ) ;
#118 = DIRECTION ( 'NONE',  ( -0.000000000000000000, -0.000000000000000000, -1.000000000000000000 ) ) ;
#119 = LOCAL_TIME ( 17, 25, 50.00000000000000000, #11 ) ;
#120 = CC_DESIGN_SECURITY_CLASSIFICATION ( #232, ( #95 ) ) ;
#121 = EDGE_CURVE ( 'NONE', #36, #218, #216, .T. ) ;
#122 = ORIENTED_EDGE ( 'NONE', *, *, #198, .F. ) ;
#123 = ORIENTED_EDGE ( 'NONE', *, *, #111, .T. ) ;
#124 = DIRECTION ( 'NONE',  ( 1.000000000000000000, 0.000000000000000000, 0.000000000000000000 ) ) ;
#125 = CARTESIAN_POINT ( 'NONE',  ( -3.000000000000000444, 0.000000000000000000, 0.000000000000000000 ) ) ;
#126 = CYLINDRICAL_SURFACE ( 'NONE', #85, 3.000000000000000444 ) ;
#127 = APPROVAL_PERSON_ORGANIZATION ( #90, #75, #244 ) ;
#128 = ORIENTED_EDGE ( 'NONE', *, *, #198, .T. ) ;
#129 = VERTEX_POINT ( 'NONE', #171 ) ;
#130 = DIRECTION ( 'NONE',  ( 0.000000000000000000, 0.000000000000000000, 1.000000000000000000 ) ) ;
#131 = DIRECTION ( 'NONE',  ( -0.000000000000000000, -0.000000000000000000, -1.000000000000000000 ) ) ;
#132 = MANIFOLD_SOLID_BREP ( 'Pøidat vysunutím3', #48 ) ;
#133 = ADVANCED_FACE ( 'NONE', ( #79 ), #113, .T. ) ;
#134 = AXIS2_PLACEMENT_3D ( 'NONE', #240, #57, #124 ) ;
#135 = APPROVAL_DATE_TIME ( #53, #164 ) ;
#136 = DIRECTION ( 'NONE',  ( 0.000000000000000000, 0.000000000000000000, 1.000000000000000000 ) ) ;
#137 = LINE ( 'NONE', #155, #253 ) ;
#138 = ADVANCED_FACE ( 'NONE', ( #215, #31 ), #74, .T. ) ;
#139 = ORIENTED_EDGE ( 'NONE', *, *, #82, .T. ) ;
#140 = DESIGN_CONTEXT ( 'detailed design', #144, 'design' ) ;
#141 = ORGANIZATION ( 'NEURÈENÝ', 'NEURÈENÝ', '' ) ;
#142 = VERTEX_POINT ( 'NONE', #17 ) ;
#143 = AXIS2_PLACEMENT_3D ( 'NONE', #91, #234, #19 ) ;
#144 = APPLICATION_CONTEXT ( 'configuration controlled 3d designs of mechanical parts and assemblies' ) ;
#145 = COORDINATED_UNIVERSAL_TIME_OFFSET ( 1, 0, .AHEAD. ) ;
#146 = DIRECTION ( 'NONE',  ( 1.000000000000000000, 0.000000000000000000, 0.000000000000000000 ) ) ;
#147 = EDGE_CURVE ( 'NONE', #142, #199, #179, .T. ) ;
#148 = PERSON_AND_ORGANIZATION ( #239, #141 ) ;
#149 = CARTESIAN_POINT ( 'NONE',  ( 0.000000000000000000, 0.000000000000000000, 3.000000000000000000 ) ) ;
#150 = ORIENTED_EDGE ( 'NONE', *, *, #151, .F. ) ;
#151 = EDGE_CURVE ( 'NONE', #160, #102, #98, .T. ) ;
#152 = COORDINATED_UNIVERSAL_TIME_OFFSET ( 1, 0, .AHEAD. ) ;
#153 = CARTESIAN_POINT ( 'NONE',  ( 0.000000000000000000, 0.000000000000000000, 0.000000000000000000 ) ) ;
#154 = CARTESIAN_POINT ( 'NONE',  ( 0.000000000000000000, 0.000000000000000000, 125.0000000000000000 ) ) ;
#155 = CARTESIAN_POINT ( 'NONE',  ( -3.000000000000000444, 0.000000000000000000, 3.000000000000000000 ) ) ;
#156 = LOCAL_TIME ( 17, 25, 50.00000000000000000, #152 ) ;
#157 = LOCAL_TIME ( 17, 25, 50.00000000000000000, #213 ) ;
#158 = DIRECTION ( 'NONE',  ( 0.000000000000000000, 0.000000000000000000, 1.000000000000000000 ) ) ;
#159 = DIRECTION ( 'NONE',  ( -0.000000000000000000, -0.000000000000000000, -1.000000000000000000 ) ) ;
#160 = VERTEX_POINT ( 'NONE', #248 ) ;
#161 = ORIENTED_EDGE ( 'NONE', *, *, #238, .F. ) ;
#162 = APPLICATION_PROTOCOL_DEFINITION ( 'international standard', 'config_control_design', 1994, #44 ) ;
#163 = PERSON_AND_ORGANIZATION_ROLE ( 'creator' ) ;
#164 = APPROVAL ( #96, 'NEURÈENÝ' ) ;
#165 = APPROVAL_STATUS ( 'not_yet_approved' ) ;
#166 = AXIS2_PLACEMENT_3D ( 'NONE', #149, #221, #3 ) ;
#167 = ORIENTED_EDGE ( 'NONE', *, *, #121, .F. ) ;
#168 = ORIENTED_EDGE ( 'NONE', *, *, #105, .T. ) ;
#169 = ADVANCED_FACE ( 'NONE', ( #77 ), #235, .T. ) ;
#170 = APPROVAL_ROLE ( '' ) ;
#171 = CARTESIAN_POINT ( 'NONE',  ( -1.600000000000000089, 0.000000000000000000, 125.0000000000000000 ) ) ;
#172 = CALENDAR_DATE ( 2023, 13, 2 ) ;
#173 = DIRECTION ( 'NONE',  ( -0.000000000000000000, -0.000000000000000000, -1.000000000000000000 ) ) ;
#174 = LINE ( 'NONE', #83, #35 ) ;
#175 = DIRECTION ( 'NONE',  ( 1.000000000000000000, 0.000000000000000000, -0.000000000000000000 ) ) ;
#176 = CC_DESIGN_PERSON_AND_ORGANIZATION_ASSIGNMENT ( #16, #208, ( #95 ) ) ;
#177 = PRODUCT ( 'e081', 'e081', '', ( #227 ) ) ;
#178 = EDGE_CURVE ( 'NONE', #142, #36, #174, .T. ) ;
#179 = CIRCLE ( 'NONE', #68, 3.000000000000000444 ) ;
#180 = CALENDAR_DATE ( 2023, 13, 2 ) ;
#181 = EDGE_CURVE ( 'NONE', #129, #160, #211, .T. ) ;
#182 = FACE_OUTER_BOUND ( 'NONE', #47, .T. ) ;
#183 = CARTESIAN_POINT ( 'NONE',  ( -1.600000000000000089, 0.000000000000000000, 3.000000000000000000 ) ) ;
#184 = CYLINDRICAL_SURFACE ( 'NONE', #143, 1.600000000000000089 ) ;
#185 =( NAMED_UNIT ( * ) PLANE_ANGLE_UNIT ( ) SI_UNIT ( $, .RADIAN. ) );
#186 = CYLINDRICAL_SURFACE ( 'NONE', #28, 1.600000000000000089 ) ;
#187 = AXIS2_PLACEMENT_3D ( 'NONE', #49, #130, #7 ) ;
#188 = PERSON_AND_ORGANIZATION_ROLE ( 'classification_officer' ) ;
#189 = DIRECTION ( 'NONE',  ( -1.000000000000000000, 0.000000000000000000, 0.000000000000000000 ) ) ;
#190 = DATE_TIME_ROLE ( 'classification_date' ) ;
#191 = CC_DESIGN_APPROVAL ( #75, ( #95 ) ) ;
#192 = DATE_AND_TIME ( #73, #157 ) ;
#193 = DIRECTION ( 'NONE',  ( 1.000000000000000000, 0.000000000000000000, 0.000000000000000000 ) ) ;
#194 = DIRECTION ( 'NONE',  ( -0.000000000000000000, -0.000000000000000000, -1.000000000000000000 ) ) ;
#195 = AXIS2_PLACEMENT_3D ( 'NONE', #27, #39, #108 ) ;
#196 = DIRECTION ( 'NONE',  ( 1.000000000000000000, 0.000000000000000000, 0.000000000000000000 ) ) ;
#197 = DIRECTION ( 'NONE',  ( 0.000000000000000000, 0.000000000000000000, 1.000000000000000000 ) ) ;
#198 = EDGE_CURVE ( 'NONE', #200, #102, #71, .T. ) ;
#199 = VERTEX_POINT ( 'NONE', #9 ) ;
#200 = VERTEX_POINT ( 'NONE', #183 ) ;
#201 = LOCAL_TIME ( 17, 25, 50.00000000000000000, #145 ) ;
#202 = DIRECTION ( 'NONE',  ( -1.000000000000000000, 0.000000000000000000, 0.000000000000000000 ) ) ;
#203 = DATE_TIME_ROLE ( 'creation_date' ) ;
#204 = DIRECTION ( 'NONE',  ( 0.000000000000000000, 0.000000000000000000, 1.000000000000000000 ) ) ;
#205 = PERSON_AND_ORGANIZATION ( #239, #141 ) ;
#206 = COORDINATED_UNIVERSAL_TIME_OFFSET ( 1, 0, .AHEAD. ) ;
#207 = ORIENTED_EDGE ( 'NONE', *, *, #18, .F. ) ;
#208 = PERSON_AND_ORGANIZATION_ROLE ( 'design_supplier' ) ;
#209 = ADVANCED_BREP_SHAPE_REPRESENTATION ( 'e081', ( #132, #187 ), #92 ) ;
#210 = CC_DESIGN_PERSON_AND_ORGANIZATION_ASSIGNMENT ( #38, #46, ( #177 ) ) ;
#211 = CIRCLE ( 'NONE', #134, 1.600000000000000089 ) ;
#212 = SHAPE_DEFINITION_REPRESENTATION ( #4, #209 ) ;
#213 = COORDINATED_UNIVERSAL_TIME_OFFSET ( 1, 0, .AHEAD. ) ;
#214 = CARTESIAN_POINT ( 'NONE',  ( 0.000000000000000000, 0.000000000000000000, 3.000000000000000000 ) ) ;
#215 = FACE_BOUND ( 'NONE', #109, .T. ) ;
#216 = CIRCLE ( 'NONE', #104, 3.000000000000000444 ) ;
#217 = CARTESIAN_POINT ( 'NONE',  ( 0.000000000000000000, 0.000000000000000000, 3.000000000000000000 ) ) ;
#218 = VERTEX_POINT ( 'NONE', #125 ) ;
#219 = ORIENTED_EDGE ( 'NONE', *, *, #178, .F. ) ;
#220 = CIRCLE ( 'NONE', #22, 3.000000000000000444 ) ;
#221 = DIRECTION ( 'NONE',  ( 0.000000000000000000, 0.000000000000000000, 1.000000000000000000 ) ) ;
#222 = DIRECTION ( 'NONE',  ( -0.000000000000000000, -0.000000000000000000, -1.000000000000000000 ) ) ;
#223 = CC_DESIGN_PERSON_AND_ORGANIZATION_ASSIGNMENT ( #148, #163, ( #52 ) ) ;
#224 = CALENDAR_DATE ( 2023, 13, 2 ) ;
#225 = FACE_OUTER_BOUND ( 'NONE', #84, .T. ) ;
#226 = ORIENTED_EDGE ( 'NONE', *, *, #82, .F. ) ;
#227 = MECHANICAL_CONTEXT ( 'NONE', #44, 'mechanical' ) ;
#228 = APPROVAL ( #66, 'NEURÈENÝ' ) ;
#229 = CARTESIAN_POINT ( 'NONE',  ( 3.000000000000000444, 3.673940397442060361E-16, 0.000000000000000000 ) ) ;
#230 = CIRCLE ( 'NONE', #116, 1.600000000000000089 ) ;
#231 = CARTESIAN_POINT ( 'NONE',  ( 0.000000000000000000, 0.000000000000000000, 125.0000000000000000 ) ) ;
#232 = SECURITY_CLASSIFICATION ( '', '', #78 ) ;
#233 = CARTESIAN_POINT ( 'NONE',  ( 0.000000000000000000, 0.000000000000000000, 0.000000000000000000 ) ) ;
#234 = DIRECTION ( 'NONE',  ( -0.000000000000000000, -0.000000000000000000, -1.000000000000000000 ) ) ;
#235 = CYLINDRICAL_SURFACE ( 'NONE', #246, 3.000000000000000444 ) ;
#236 = APPROVAL_PERSON_ORGANIZATION ( #205, #228, #45 ) ;
#237 = LINE ( 'NONE', #30, #37 ) ;
#238 = EDGE_CURVE ( 'NONE', #199, #142, #41, .T. ) ;
#239 = PERSON ( 'NEURÈENÝ', 'NEURÈENÝ', 'NEURÈENÝ', ('NEURÈENÝ'), ('NEURÈENÝ'), ('NEURÈENÝ') ) ;
#240 = CARTESIAN_POINT ( 'NONE',  ( 0.000000000000000000, 0.000000000000000000, 125.0000000000000000 ) ) ;
#241 = DIRECTION ( 'NONE',  ( 1.000000000000000000, 0.000000000000000000, 0.000000000000000000 ) ) ;
#242 = EDGE_LOOP ( 'NONE', ( #21, #10 ) ) ;
#243 = ORIENTED_EDGE ( 'NONE', *, *, #147, .F. ) ;
#244 = APPROVAL_ROLE ( '' ) ;
#245 = DIRECTION ( 'NONE',  ( 0.000000000000000000, 0.000000000000000000, 1.000000000000000000 ) ) ;
#246 = AXIS2_PLACEMENT_3D ( 'NONE', #115, #194, #249 ) ;
#247 = DIRECTION ( 'NONE',  ( 1.000000000000000000, 0.000000000000000000, 0.000000000000000000 ) ) ;
#248 = CARTESIAN_POINT ( 'NONE',  ( 1.600000000000000089, 1.959434878635764737E-16, 125.0000000000000000 ) ) ;
#249 = DIRECTION ( 'NONE',  ( -1.000000000000000000, 0.000000000000000000, 0.000000000000000000 ) ) ;
#250 = APPROVAL_DATE_TIME ( #192, #75 ) ;
#251 = CARTESIAN_POINT ( 'NONE',  ( 1.600000000000000089, 1.959434878635764737E-16, 3.000000000000000000 ) ) ;
#252 = CC_DESIGN_APPROVAL ( #164, ( #232 ) ) ;
#253 = VECTOR ( 'NONE', #118, 1000.000000000000000 ) ;
#254 = AXIS2_PLACEMENT_3D ( 'NONE', #154, #56, #54 ) ;
#255 = AXIS2_PLACEMENT_3D ( 'NONE', #214, #136, #175 ) ;
ENDSEC;
END-ISO-10303-21;
