ISO-10303-21;
HEADER;
FILE_DESCRIPTION (( 'STEP AP203' ),
    '1' );
FILE_NAME ('c784.STEP',
    '2023-02-13T09:47:21',
    ( '' ),
    ( '' ),
    'SwSTEP 2.0',
    'SolidWorks 2019',
    '' );
FILE_SCHEMA (( 'CONFIG_CONTROL_DESIGN' ));
ENDSEC;

DATA;
#1 = CC_DESIGN_APPROVAL ( #35, ( #165 ) ) ;
#2 = DIRECTION ( 'NONE',  ( -0.000000000000000000, -0.000000000000000000, -1.000000000000000000 ) ) ;
#3 = DIRECTION ( 'NONE',  ( 0.000000000000000000, 0.000000000000000000, 1.000000000000000000 ) ) ;
#4 = DIRECTION ( 'NONE',  ( 0.000000000000000000, 0.000000000000000000, 1.000000000000000000 ) ) ;
#5 = EDGE_LOOP ( 'NONE', ( #92, #215 ) ) ;
#6 = APPROVAL ( #99, 'NEURÈENÝ' ) ;
#7 = DIRECTION ( 'NONE',  ( 0.000000000000000000, 0.000000000000000000, 1.000000000000000000 ) ) ;
#8 = AXIS2_PLACEMENT_3D ( 'NONE', #137, #191, #103 ) ;
#9 = CARTESIAN_POINT ( 'NONE',  ( 0.000000000000000000, 0.000000000000000000, 0.000000000000000000 ) ) ;
#10 = EDGE_CURVE ( 'NONE', #84, #154, #242, .T. ) ;
#11 = DIRECTION ( 'NONE',  ( -0.000000000000000000, -0.000000000000000000, -1.000000000000000000 ) ) ;
#12 = ORIENTED_EDGE ( 'NONE', *, *, #182, .F. ) ;
#13 = APPROVAL_ROLE ( '' ) ;
#14 = ORIENTED_EDGE ( 'NONE', *, *, #178, .T. ) ;
#15 = APPLICATION_CONTEXT ( 'configuration controlled 3d designs of mechanical parts and assemblies' ) ;
#16 = AXIS2_PLACEMENT_3D ( 'NONE', #9, #246, #143 ) ;
#17 = CC_DESIGN_PERSON_AND_ORGANIZATION_ASSIGNMENT ( #237, #136, ( #111 ) ) ;
#18 = LOCAL_TIME ( 10, 47, 21.00000000000000000, #46 ) ;
#19 = APPROVAL_ROLE ( '' ) ;
#20 = ORIENTED_EDGE ( 'NONE', *, *, #53, .T. ) ;
#21 = CIRCLE ( 'NONE', #183, 8.000000000000000000 ) ;
#22 = EDGE_LOOP ( 'NONE', ( #60, #205, #20, #132 ) ) ;
#23 = ADVANCED_FACE ( 'NONE', ( #240 ), #101, .T. ) ;
#24 = CARTESIAN_POINT ( 'NONE',  ( -8.000000000000000000, 0.000000000000000000, 125.0000000000000000 ) ) ;
#25 = EDGE_LOOP ( 'NONE', ( #40, #117 ) ) ;
#26 = PERSON_AND_ORGANIZATION_ROLE ( 'classification_officer' ) ;
#27 = DIRECTION ( 'NONE',  ( 0.000000000000000000, 0.000000000000000000, 1.000000000000000000 ) ) ;
#28 = PERSON_AND_ORGANIZATION ( #129, #100 ) ;
#29 = CARTESIAN_POINT ( 'NONE',  ( 11.00000000000000000, 1.347111479062088405E-15, 7.000000000000000000 ) ) ;
#30 = AXIS2_PLACEMENT_3D ( 'NONE', #43, #115, #174 ) ;
#31 = CARTESIAN_POINT ( 'NONE',  ( -11.00000000000000000, 0.000000000000000000, 7.000000000000000000 ) ) ;
#32 = LOCAL_TIME ( 10, 47, 21.00000000000000000, #56 ) ;
#33 = CARTESIAN_POINT ( 'NONE',  ( 0.000000000000000000, 0.000000000000000000, 7.000000000000000000 ) ) ;
#34 = DIRECTION ( 'NONE',  ( -0.000000000000000000, -0.000000000000000000, -1.000000000000000000 ) ) ;
#35 = APPROVAL ( #193, 'NEURÈENÝ' ) ;
#36 = APPROVAL_PERSON_ORGANIZATION ( #28, #35, #13 ) ;
#37 = DATE_AND_TIME ( #204, #83 ) ;
#38 = PRODUCT ( 'c784', 'c784', '', ( #48 ) ) ;
#39 = DATE_AND_TIME ( #255, #179 ) ;
#40 = ORIENTED_EDGE ( 'NONE', *, *, #95, .T. ) ;
#41 = ORIENTED_EDGE ( 'NONE', *, *, #219, .T. ) ;
#42 = AXIS2_PLACEMENT_3D ( 'NONE', #86, #106, #45 ) ;
#43 = CARTESIAN_POINT ( 'NONE',  ( 0.000000000000000000, 0.000000000000000000, 125.0000000000000000 ) ) ;
#44 = DIRECTION ( 'NONE',  ( 1.000000000000000000, 0.000000000000000000, 0.000000000000000000 ) ) ;
#45 = DIRECTION ( 'NONE',  ( -1.000000000000000000, 0.000000000000000000, 0.000000000000000000 ) ) ;
#46 = COORDINATED_UNIVERSAL_TIME_OFFSET ( 1, 0, .AHEAD. ) ;
#47 = DIRECTION ( 'NONE',  ( 0.000000000000000000, 0.000000000000000000, 1.000000000000000000 ) ) ;
#48 = MECHANICAL_CONTEXT ( 'NONE', #148, 'mechanical' ) ;
#49 = ADVANCED_FACE ( 'NONE', ( #213 ), #80, .T. ) ;
#50 = LINE ( 'NONE', #70, #186 ) ;
#51 = CARTESIAN_POINT ( 'NONE',  ( 0.000000000000000000, 0.000000000000000000, 0.000000000000000000 ) ) ;
#52 = CARTESIAN_POINT ( 'NONE',  ( 0.000000000000000000, 0.000000000000000000, 0.000000000000000000 ) ) ;
#53 = EDGE_CURVE ( 'NONE', #113, #210, #54, .T. ) ;
#54 = CIRCLE ( 'NONE', #212, 8.000000000000000000 ) ;
#55 = PERSON_AND_ORGANIZATION ( #129, #100 ) ;
#56 = COORDINATED_UNIVERSAL_TIME_OFFSET ( 1, 0, .AHEAD. ) ;
#57 = VERTEX_POINT ( 'NONE', #24 ) ;
#58 = APPROVAL_DATE_TIME ( #39, #35 ) ;
#59 = ORIENTED_EDGE ( 'NONE', *, *, #185, .F. ) ;
#60 = ORIENTED_EDGE ( 'NONE', *, *, #67, .F. ) ;
#61 = ORIENTED_EDGE ( 'NONE', *, *, #219, .F. ) ;
#62 = PLANE ( 'NONE',  #8 ) ;
#63 = CC_DESIGN_DATE_AND_TIME_ASSIGNMENT ( #37, #109, ( #140 ) ) ;
#64 = PERSON_AND_ORGANIZATION_ROLE ( 'design_supplier' ) ;
#65 = CARTESIAN_POINT ( 'NONE',  ( 0.000000000000000000, 0.000000000000000000, 125.0000000000000000 ) ) ;
#66 = APPROVAL_PERSON_ORGANIZATION ( #241, #146, #142 ) ;
#67 = EDGE_CURVE ( 'NONE', #175, #57, #87, .T. ) ;
#68 = PRODUCT_RELATED_PRODUCT_CATEGORY ( 'detail', '', ( #38 ) ) ;
#69 = DIRECTION ( 'NONE',  ( 0.000000000000000000, 0.000000000000000000, 1.000000000000000000 ) ) ;
#70 = CARTESIAN_POINT ( 'NONE',  ( -8.000000000000000000, 0.000000000000000000, 125.0000000000000000 ) ) ;
#71 =( NAMED_UNIT ( * ) SI_UNIT ( $, .STERADIAN. ) SOLID_ANGLE_UNIT ( ) );
#72 = AXIS2_PLACEMENT_3D ( 'NONE', #168, #85, #133 ) ;
#73 = EDGE_LOOP ( 'NONE', ( #12, #150, #14, #102 ) ) ;
#74 =( LENGTH_UNIT ( ) NAMED_UNIT ( * ) SI_UNIT ( .MILLI., .METRE. ) );
#75 = UNCERTAINTY_MEASURE_WITH_UNIT (LENGTH_MEASURE( 1.000000000000000082E-05 ), #74, 'distance_accuracy_value', 'NONE');
#76 = COORDINATED_UNIVERSAL_TIME_OFFSET ( 1, 0, .AHEAD. ) ;
#77 = ORIENTED_EDGE ( 'NONE', *, *, #166, .F. ) ;
#78 = CLOSED_SHELL ( 'NONE', ( #23, #198, #208, #82, #173, #216, #49 ) ) ;
#79 = CC_DESIGN_DATE_AND_TIME_ASSIGNMENT ( #196, #252, ( #165 ) ) ;
#80 = PLANE ( 'NONE',  #30 ) ;
#81 = CARTESIAN_POINT ( 'NONE',  ( 0.000000000000000000, 0.000000000000000000, 125.0000000000000000 ) ) ;
#82 = ADVANCED_FACE ( 'NONE', ( #156, #238 ), #62, .T. ) ;
#83 = LOCAL_TIME ( 10, 47, 21.00000000000000000, #76 ) ;
#84 = VERTEX_POINT ( 'NONE', #161 ) ;
#85 = DIRECTION ( 'NONE',  ( 0.000000000000000000, 0.000000000000000000, 1.000000000000000000 ) ) ;
#86 = CARTESIAN_POINT ( 'NONE',  ( 0.000000000000000000, 0.000000000000000000, 7.000000000000000000 ) ) ;
#87 = CIRCLE ( 'NONE', #229, 8.000000000000000000 ) ;
#88 = VECTOR ( 'NONE', #34, 1000.000000000000000 ) ;
#89 = DIRECTION ( 'NONE',  ( -1.000000000000000000, 0.000000000000000000, 0.000000000000000000 ) ) ;
#90 = PLANE ( 'NONE',  #224 ) ;
#91 = DATE_AND_TIME ( #126, #18 ) ;
#92 = ORIENTED_EDGE ( 'NONE', *, *, #185, .T. ) ;
#93 = COORDINATED_UNIVERSAL_TIME_OFFSET ( 1, 0, .AHEAD. ) ;
#94 = PERSON_AND_ORGANIZATION ( #129, #100 ) ;
#95 = EDGE_CURVE ( 'NONE', #57, #175, #254, .T. ) ;
#96 = AXIS2_PLACEMENT_3D ( 'NONE', #176, #122, #243 ) ;
#97 = AXIS2_PLACEMENT_3D ( 'NONE', #65, #11, #89 ) ;
#98 = VERTEX_POINT ( 'NONE', #31 ) ;
#99 = APPROVAL_STATUS ( 'not_yet_approved' ) ;
#100 = ORGANIZATION ( 'NEURÈENÝ', 'NEURÈENÝ', '' ) ;
#101 = CYLINDRICAL_SURFACE ( 'NONE', #187, 8.000000000000000000 ) ;
#102 = ORIENTED_EDGE ( 'NONE', *, *, #230, .T. ) ;
#103 = DIRECTION ( 'NONE',  ( 1.000000000000000000, 0.000000000000000000, -0.000000000000000000 ) ) ;
#104 = CARTESIAN_POINT ( 'NONE',  ( 8.000000000000000000, 9.797174393178825657E-16, 7.000000000000000000 ) ) ;
#105 = CARTESIAN_POINT ( 'NONE',  ( -8.000000000000000000, 0.000000000000000000, 7.000000000000000000 ) ) ;
#106 = DIRECTION ( 'NONE',  ( -0.000000000000000000, -0.000000000000000000, -1.000000000000000000 ) ) ;
#107 = CARTESIAN_POINT ( 'NONE',  ( 0.000000000000000000, 0.000000000000000000, 7.000000000000000000 ) ) ;
#108 = AXIS2_PLACEMENT_3D ( 'NONE', #144, #7, #221 ) ;
#109 = DATE_TIME_ROLE ( 'creation_date' ) ;
#110 = ADVANCED_BREP_SHAPE_REPRESENTATION ( 'c784', ( #225, #158 ), #249 ) ;
#111 = PRODUCT_DEFINITION_FORMATION_WITH_SPECIFIED_SOURCE ( 'LIBOVOLNÝ', '', #38, .NOT_KNOWN. ) ;
#112 = EDGE_CURVE ( 'NONE', #114, #98, #164, .T. ) ;
#113 = VERTEX_POINT ( 'NONE', #104 ) ;
#114 = VERTEX_POINT ( 'NONE', #29 ) ;
#115 = DIRECTION ( 'NONE',  ( 0.000000000000000000, 0.000000000000000000, 1.000000000000000000 ) ) ;
#116 = DIRECTION ( 'NONE',  ( 1.000000000000000000, 0.000000000000000000, 0.000000000000000000 ) ) ;
#117 = ORIENTED_EDGE ( 'NONE', *, *, #67, .T. ) ;
#118 = CC_DESIGN_PERSON_AND_ORGANIZATION_ASSIGNMENT ( #149, #26, ( #165 ) ) ;
#119 = CYLINDRICAL_SURFACE ( 'NONE', #97, 8.000000000000000000 ) ;
#120 = DIRECTION ( 'NONE',  ( 1.000000000000000000, 0.000000000000000000, 0.000000000000000000 ) ) ;
#121 = DIRECTION ( 'NONE',  ( -1.000000000000000000, 0.000000000000000000, 0.000000000000000000 ) ) ;
#122 = DIRECTION ( 'NONE',  ( 0.000000000000000000, 0.000000000000000000, 1.000000000000000000 ) ) ;
#123 = FACE_OUTER_BOUND ( 'NONE', #152, .T. ) ;
#124 = CC_DESIGN_PERSON_AND_ORGANIZATION_ASSIGNMENT ( #202, #199, ( #38 ) ) ;
#125 = CARTESIAN_POINT ( 'NONE',  ( 0.000000000000000000, 0.000000000000000000, 125.0000000000000000 ) ) ;
#126 = CALENDAR_DATE ( 2023, 13, 2 ) ;
#127 = PERSON_AND_ORGANIZATION_ROLE ( 'creator' ) ;
#128 = APPROVAL_PERSON_ORGANIZATION ( #94, #6, #19 ) ;
#129 = PERSON ( 'NEURÈENÝ', 'NEURÈENÝ', 'NEURÈENÝ', ('NEURÈENÝ'), ('NEURÈENÝ'), ('NEURÈENÝ') ) ;
#130 = CC_DESIGN_APPROVAL ( #6, ( #111 ) ) ;
#131 = DIRECTION ( 'NONE',  ( -1.000000000000000000, 0.000000000000000000, 0.000000000000000000 ) ) ;
#132 = ORIENTED_EDGE ( 'NONE', *, *, #178, .F. ) ;
#133 = DIRECTION ( 'NONE',  ( 1.000000000000000000, 0.000000000000000000, 0.000000000000000000 ) ) ;
#134 = AXIS2_PLACEMENT_3D ( 'NONE', #125, #47, #159 ) ;
#135 = LOCAL_TIME ( 10, 47, 21.00000000000000000, #167 ) ;
#136 = PERSON_AND_ORGANIZATION_ROLE ( 'creator' ) ;
#137 = CARTESIAN_POINT ( 'NONE',  ( 0.000000000000000000, 0.000000000000000000, 7.000000000000000000 ) ) ;
#138 = SECURITY_CLASSIFICATION_LEVEL ( 'unclassified' ) ;
#139 = ORIENTED_EDGE ( 'NONE', *, *, #169, .F. ) ;
#140 = PRODUCT_DEFINITION ( 'NEZNÁMÝ', '', #111, #233 ) ;
#141 = LINE ( 'NONE', #145, #157 ) ;
#142 = APPROVAL_ROLE ( '' ) ;
#143 = DIRECTION ( 'NONE',  ( 1.000000000000000000, 0.000000000000000000, 0.000000000000000000 ) ) ;
#144 = CARTESIAN_POINT ( 'NONE',  ( 0.000000000000000000, 0.000000000000000000, 7.000000000000000000 ) ) ;
#145 = CARTESIAN_POINT ( 'NONE',  ( -11.00000000000000000, 0.000000000000000000, 7.000000000000000000 ) ) ;
#146 = APPROVAL ( #195, 'NEURÈENÝ' ) ;
#147 = CARTESIAN_POINT ( 'NONE',  ( 11.00000000000000000, 1.347111479062088405E-15, 7.000000000000000000 ) ) ;
#148 = APPLICATION_CONTEXT ( 'configuration controlled 3d designs of mechanical parts and assemblies' ) ;
#149 = PERSON_AND_ORGANIZATION ( #129, #100 ) ;
#150 = ORIENTED_EDGE ( 'NONE', *, *, #95, .F. ) ;
#151 = CC_DESIGN_PERSON_AND_ORGANIZATION_ASSIGNMENT ( #55, #127, ( #140 ) ) ;
#152 = EDGE_LOOP ( 'NONE', ( #61, #59, #211, #172 ) ) ;
#153 = EDGE_LOOP ( 'NONE', ( #234, #41, #236, #139 ) ) ;
#154 = VERTEX_POINT ( 'NONE', #226 ) ;
#155 = APPROVAL_DATE_TIME ( #170, #6 ) ;
#156 = FACE_BOUND ( 'NONE', #217, .T. ) ;
#157 = VECTOR ( 'NONE', #197, 1000.000000000000000 ) ;
#158 = AXIS2_PLACEMENT_3D ( 'NONE', #51, #247, #120 ) ;
#159 = DIRECTION ( 'NONE',  ( 1.000000000000000000, 0.000000000000000000, 0.000000000000000000 ) ) ;
#160 = DIRECTION ( 'NONE',  ( -0.000000000000000000, -0.000000000000000000, -1.000000000000000000 ) ) ;
#161 = CARTESIAN_POINT ( 'NONE',  ( -11.00000000000000000, 0.000000000000000000, 0.000000000000000000 ) ) ;
#162 = LINE ( 'NONE', #218, #231 ) ;
#163 = CC_DESIGN_PERSON_AND_ORGANIZATION_ASSIGNMENT ( #239, #64, ( #111 ) ) ;
#164 = CIRCLE ( 'NONE', #96, 11.00000000000000000 ) ;
#165 = SECURITY_CLASSIFICATION ( '', '', #138 ) ;
#166 = EDGE_CURVE ( 'NONE', #154, #84, #223, .T. ) ;
#167 = COORDINATED_UNIVERSAL_TIME_OFFSET ( 1, 0, .AHEAD. ) ;
#168 = CARTESIAN_POINT ( 'NONE',  ( 0.000000000000000000, 0.000000000000000000, 0.000000000000000000 ) ) ;
#169 = EDGE_CURVE ( 'NONE', #98, #84, #141, .T. ) ;
#170 = DATE_AND_TIME ( #188, #135 ) ;
#171 = CARTESIAN_POINT ( 'NONE',  ( 0.000000000000000000, 0.000000000000000000, 125.0000000000000000 ) ) ;
#172 = ORIENTED_EDGE ( 'NONE', *, *, #10, .T. ) ;
#173 = ADVANCED_FACE ( 'NONE', ( #248 ), #90, .F. ) ;
#174 = DIRECTION ( 'NONE',  ( 1.000000000000000000, 0.000000000000000000, -0.000000000000000000 ) ) ;
#175 = VERTEX_POINT ( 'NONE', #222 ) ;
#176 = CARTESIAN_POINT ( 'NONE',  ( 0.000000000000000000, 0.000000000000000000, 7.000000000000000000 ) ) ;
#177 = DIRECTION ( 'NONE',  ( 1.000000000000000000, 0.000000000000000000, -0.000000000000000000 ) ) ;
#178 = EDGE_CURVE ( 'NONE', #57, #210, #50, .T. ) ;
#179 = LOCAL_TIME ( 10, 47, 21.00000000000000000, #93 ) ;
#180 = DIRECTION ( 'NONE',  ( -0.000000000000000000, -0.000000000000000000, -1.000000000000000000 ) ) ;
#181 = DIRECTION ( 'NONE',  ( 1.000000000000000000, 0.000000000000000000, 0.000000000000000000 ) ) ;
#182 = EDGE_CURVE ( 'NONE', #175, #113, #162, .T. ) ;
#183 = AXIS2_PLACEMENT_3D ( 'NONE', #107, #27, #181 ) ;
#184 = APPLICATION_PROTOCOL_DEFINITION ( 'international standard', 'config_control_design', 1994, #148 ) ;
#185 = EDGE_CURVE ( 'NONE', #98, #114, #214, .T. ) ;
#186 = VECTOR ( 'NONE', #180, 1000.000000000000000 ) ;
#187 = AXIS2_PLACEMENT_3D ( 'NONE', #171, #2, #131 ) ;
#188 = CALENDAR_DATE ( 2023, 13, 2 ) ;
#189 = CC_DESIGN_SECURITY_CLASSIFICATION ( #165, ( #111 ) ) ;
#190 = CARTESIAN_POINT ( 'NONE',  ( 0.000000000000000000, 0.000000000000000000, 7.000000000000000000 ) ) ;
#191 = DIRECTION ( 'NONE',  ( 0.000000000000000000, 0.000000000000000000, 1.000000000000000000 ) ) ;
#192 = SHAPE_DEFINITION_REPRESENTATION ( #228, #110 ) ;
#193 = APPROVAL_STATUS ( 'not_yet_approved' ) ;
#194 = LINE ( 'NONE', #147, #88 ) ;
#195 = APPROVAL_STATUS ( 'not_yet_approved' ) ;
#196 = DATE_AND_TIME ( #206, #32 ) ;
#197 = DIRECTION ( 'NONE',  ( -0.000000000000000000, -0.000000000000000000, -1.000000000000000000 ) ) ;
#198 = ADVANCED_FACE ( 'NONE', ( #245 ), #200, .T. ) ;
#199 = PERSON_AND_ORGANIZATION_ROLE ( 'design_owner' ) ;
#200 = CYLINDRICAL_SURFACE ( 'NONE', #244, 11.00000000000000000 ) ;
#201 = CYLINDRICAL_SURFACE ( 'NONE', #42, 11.00000000000000000 ) ;
#202 = PERSON_AND_ORGANIZATION ( #129, #100 ) ;
#203 = DIRECTION ( 'NONE',  ( -0.000000000000000000, -0.000000000000000000, -1.000000000000000000 ) ) ;
#204 = CALENDAR_DATE ( 2023, 13, 2 ) ;
#205 = ORIENTED_EDGE ( 'NONE', *, *, #182, .T. ) ;
#206 = CALENDAR_DATE ( 2023, 13, 2 ) ;
#207 = CC_DESIGN_APPROVAL ( #146, ( #140 ) ) ;
#208 = ADVANCED_FACE ( 'NONE', ( #123 ), #201, .T. ) ;
#209 = EDGE_LOOP ( 'NONE', ( #232, #77 ) ) ;
#210 = VERTEX_POINT ( 'NONE', #105 ) ;
#211 = ORIENTED_EDGE ( 'NONE', *, *, #169, .T. ) ;
#212 = AXIS2_PLACEMENT_3D ( 'NONE', #190, #3, #44 ) ;
#213 = FACE_OUTER_BOUND ( 'NONE', #25, .T. ) ;
#214 = CIRCLE ( 'NONE', #108, 11.00000000000000000 ) ;
#215 = ORIENTED_EDGE ( 'NONE', *, *, #112, .T. ) ;
#216 = ADVANCED_FACE ( 'NONE', ( #220 ), #119, .T. ) ;
#217 = EDGE_LOOP ( 'NONE', ( #253, #251 ) ) ;
#218 = CARTESIAN_POINT ( 'NONE',  ( 8.000000000000000000, 9.797174393178825657E-16, 125.0000000000000000 ) ) ;
#219 = EDGE_CURVE ( 'NONE', #114, #154, #194, .T. ) ;
#220 = FACE_OUTER_BOUND ( 'NONE', #73, .T. ) ;
#221 = DIRECTION ( 'NONE',  ( 1.000000000000000000, 0.000000000000000000, 0.000000000000000000 ) ) ;
#222 = CARTESIAN_POINT ( 'NONE',  ( 8.000000000000000000, 9.797174393178825657E-16, 125.0000000000000000 ) ) ;
#223 = CIRCLE ( 'NONE', #16, 11.00000000000000000 ) ;
#224 = AXIS2_PLACEMENT_3D ( 'NONE', #52, #69, #177 ) ;
#225 = MANIFOLD_SOLID_BREP ( 'Pøidat vysunutím3', #78 ) ;
#226 = CARTESIAN_POINT ( 'NONE',  ( 11.00000000000000000, 1.347111479062088405E-15, 0.000000000000000000 ) ) ;
#227 = APPLICATION_PROTOCOL_DEFINITION ( 'international standard', 'config_control_design', 1994, #15 ) ;
#228 = PRODUCT_DEFINITION_SHAPE ( 'NONE', 'NONE',  #140 ) ;
#229 = AXIS2_PLACEMENT_3D ( 'NONE', #81, #4, #116 ) ;
#230 = EDGE_CURVE ( 'NONE', #210, #113, #21, .T. ) ;
#231 = VECTOR ( 'NONE', #160, 1000.000000000000000 ) ;
#232 = ORIENTED_EDGE ( 'NONE', *, *, #10, .F. ) ;
#233 = DESIGN_CONTEXT ( 'detailed design', #15, 'design' ) ;
#234 = ORIENTED_EDGE ( 'NONE', *, *, #112, .F. ) ;
#235 = APPROVAL_DATE_TIME ( #91, #146 ) ;
#236 = ORIENTED_EDGE ( 'NONE', *, *, #166, .T. ) ;
#237 = PERSON_AND_ORGANIZATION ( #129, #100 ) ;
#238 = FACE_OUTER_BOUND ( 'NONE', #5, .T. ) ;
#239 = PERSON_AND_ORGANIZATION ( #129, #100 ) ;
#240 = FACE_OUTER_BOUND ( 'NONE', #22, .T. ) ;
#241 = PERSON_AND_ORGANIZATION ( #129, #100 ) ;
#242 = CIRCLE ( 'NONE', #72, 11.00000000000000000 ) ;
#243 = DIRECTION ( 'NONE',  ( 1.000000000000000000, 0.000000000000000000, 0.000000000000000000 ) ) ;
#244 = AXIS2_PLACEMENT_3D ( 'NONE', #33, #203, #121 ) ;
#245 = FACE_OUTER_BOUND ( 'NONE', #153, .T. ) ;
#246 = DIRECTION ( 'NONE',  ( 0.000000000000000000, 0.000000000000000000, 1.000000000000000000 ) ) ;
#247 = DIRECTION ( 'NONE',  ( 0.000000000000000000, 0.000000000000000000, 1.000000000000000000 ) ) ;
#248 = FACE_OUTER_BOUND ( 'NONE', #209, .T. ) ;
#249 =( GEOMETRIC_REPRESENTATION_CONTEXT ( 3 ) GLOBAL_UNCERTAINTY_ASSIGNED_CONTEXT ( ( #75 ) ) GLOBAL_UNIT_ASSIGNED_CONTEXT ( ( #74, #250, #71 ) ) REPRESENTATION_CONTEXT ( 'NONE', 'WORKASPACE' ) );
#250 =( NAMED_UNIT ( * ) PLANE_ANGLE_UNIT ( ) SI_UNIT ( $, .RADIAN. ) );
#251 = ORIENTED_EDGE ( 'NONE', *, *, #53, .F. ) ;
#252 = DATE_TIME_ROLE ( 'classification_date' ) ;
#253 = ORIENTED_EDGE ( 'NONE', *, *, #230, .F. ) ;
#254 = CIRCLE ( 'NONE', #134, 8.000000000000000000 ) ;
#255 = CALENDAR_DATE ( 2023, 13, 2 ) ;
ENDSEC;
END-ISO-10303-21;
