ISO-10303-21;
HEADER;
FILE_DESCRIPTION (( 'STEP AP203' ),
    '1' );
FILE_NAME ('9845.STEP',
    '2023-02-13T11:33:57',
    ( '' ),
    ( '' ),
    'SwSTEP 2.0',
    'SolidWorks 2019',
    '' );
FILE_SCHEMA (( 'CONFIG_CONTROL_DESIGN' ));
ENDSEC;

DATA;
#1 = DIRECTION ( 'NONE',  ( 1.000000000000000000, 0.000000000000000000, -0.000000000000000000 ) ) ;
#2 = DIRECTION ( 'NONE',  ( 0.000000000000000000, 0.000000000000000000, 1.000000000000000000 ) ) ;
#3 = LINE ( 'NONE', #132, #203 ) ;
#4 = ORIENTED_EDGE ( 'NONE', *, *, #78, .F. ) ;
#5 = AXIS2_PLACEMENT_3D ( 'NONE', #197, #155, #10 ) ;
#6 = DIRECTION ( 'NONE',  ( 0.000000000000000000, 0.000000000000000000, 1.000000000000000000 ) ) ;
#7 = ORIENTED_EDGE ( 'NONE', *, *, #40, .F. ) ;
#8 = MANIFOLD_SOLID_BREP ( 'Pøidat vysunutím3', #52 ) ;
#9 = LOCAL_TIME ( 12, 33, 57.00000000000000000, #59 ) ;
#10 = DIRECTION ( 'NONE',  ( -1.000000000000000000, 0.000000000000000000, 0.000000000000000000 ) ) ;
#11 = SECURITY_CLASSIFICATION_LEVEL ( 'unclassified' ) ;
#12 = APPROVAL_ROLE ( '' ) ;
#13 = APPROVAL_DATE_TIME ( #198, #146 ) ;
#14 = AXIS2_PLACEMENT_3D ( 'NONE', #75, #245, #147 ) ;
#15 = CALENDAR_DATE ( 2023, 13, 2 ) ;
#16 = AXIS2_PLACEMENT_3D ( 'NONE', #217, #157, #60 ) ;
#17 = PRODUCT_DEFINITION_FORMATION_WITH_SPECIFIED_SOURCE ( 'LIBOVOLNÝ', '', #20, .NOT_KNOWN. ) ;
#18 = AXIS2_PLACEMENT_3D ( 'NONE', #167, #145, #121 ) ;
#19 = PERSON_AND_ORGANIZATION ( #166, #243 ) ;
#20 = PRODUCT ( '9845', '9845', '', ( #226 ) ) ;
#21 = FACE_OUTER_BOUND ( 'NONE', #149, .T. ) ;
#22 = COORDINATED_UNIVERSAL_TIME_OFFSET ( 1, 0, .AHEAD. ) ;
#23 = DIRECTION ( 'NONE',  ( -0.000000000000000000, -0.000000000000000000, -1.000000000000000000 ) ) ;
#24 = VECTOR ( 'NONE', #204, 1000.000000000000000 ) ;
#25 = ADVANCED_FACE ( 'NONE', ( #27 ), #249, .T. ) ;
#26 = EDGE_LOOP ( 'NONE', ( #144, #131, #45, #230 ) ) ;
#27 = FACE_OUTER_BOUND ( 'NONE', #26, .T. ) ;
#28 = EDGE_CURVE ( 'NONE', #96, #192, #3, .T. ) ;
#29 = AXIS2_PLACEMENT_3D ( 'NONE', #224, #165, #239 ) ;
#30 = LOCAL_TIME ( 12, 33, 57.00000000000000000, #22 ) ;
#31 = CIRCLE ( 'NONE', #170, 11.00000000000000000 ) ;
#32 = PERSON_AND_ORGANIZATION_ROLE ( 'design_owner' ) ;
#33 =( NAMED_UNIT ( * ) PLANE_ANGLE_UNIT ( ) SI_UNIT ( $, .RADIAN. ) );
#34 = ORIENTED_EDGE ( 'NONE', *, *, #28, .F. ) ;
#35 = ORIENTED_EDGE ( 'NONE', *, *, #28, .T. ) ;
#36 = APPROVAL_STATUS ( 'not_yet_approved' ) ;
#37 = CARTESIAN_POINT ( 'NONE',  ( 0.000000000000000000, 0.000000000000000000, 0.000000000000000000 ) ) ;
#38 = CARTESIAN_POINT ( 'NONE',  ( -6.750000000000000000, 0.000000000000000000, 250.0000000000000000 ) ) ;
#39 = PERSON_AND_ORGANIZATION_ROLE ( 'creator' ) ;
#40 = EDGE_CURVE ( 'NONE', #111, #84, #185, .T. ) ;
#41 = SHAPE_DEFINITION_REPRESENTATION ( #180, #208 ) ;
#42 = FACE_OUTER_BOUND ( 'NONE', #128, .T. ) ;
#43 = COORDINATED_UNIVERSAL_TIME_OFFSET ( 1, 0, .AHEAD. ) ;
#44 = DIRECTION ( 'NONE',  ( 1.000000000000000000, 0.000000000000000000, 0.000000000000000000 ) ) ;
#45 = ORIENTED_EDGE ( 'NONE', *, *, #251, .T. ) ;
#46 = LOCAL_TIME ( 12, 33, 57.00000000000000000, #186 ) ;
#47 = APPROVAL_DATE_TIME ( #223, #103 ) ;
#48 = LINE ( 'NONE', #171, #24 ) ;
#49 = CARTESIAN_POINT ( 'NONE',  ( 0.000000000000000000, 0.000000000000000000, 0.000000000000000000 ) ) ;
#50 = CARTESIAN_POINT ( 'NONE',  ( 11.00000000000000000, 1.347111479062088405E-15, 0.000000000000000000 ) ) ;
#51 = ORIENTED_EDGE ( 'NONE', *, *, #68, .T. ) ;
#52 = CLOSED_SHELL ( 'NONE', ( #244, #161, #214, #120, #130, #25, #196 ) ) ;
#53 = CC_DESIGN_SECURITY_CLASSIFICATION ( #218, ( #17 ) ) ;
#54 = CIRCLE ( 'NONE', #154, 6.750000000000000000 ) ;
#55 = APPROVAL ( #227, 'NEURÈENÝ' ) ;
#56 = CC_DESIGN_DATE_AND_TIME_ASSIGNMENT ( #199, #164, ( #74 ) ) ;
#57 = DIRECTION ( 'NONE',  ( 0.000000000000000000, 0.000000000000000000, 1.000000000000000000 ) ) ;
#58 = DIRECTION ( 'NONE',  ( 0.000000000000000000, 0.000000000000000000, 1.000000000000000000 ) ) ;
#59 = COORDINATED_UNIVERSAL_TIME_OFFSET ( 1, 0, .AHEAD. ) ;
#60 = DIRECTION ( 'NONE',  ( 1.000000000000000000, 0.000000000000000000, 0.000000000000000000 ) ) ;
#61 = LINE ( 'NONE', #134, #125 ) ;
#62 = CALENDAR_DATE ( 2023, 13, 2 ) ;
#63 = DIRECTION ( 'NONE',  ( 1.000000000000000000, 0.000000000000000000, 0.000000000000000000 ) ) ;
#64 = EDGE_CURVE ( 'NONE', #202, #174, #255, .T. ) ;
#65 = APPROVAL_STATUS ( 'not_yet_approved' ) ;
#66 = PERSON_AND_ORGANIZATION ( #166, #243 ) ;
#67 = DIRECTION ( 'NONE',  ( 1.000000000000000000, 0.000000000000000000, -0.000000000000000000 ) ) ;
#68 = EDGE_CURVE ( 'NONE', #192, #231, #31, .T. ) ;
#69 = PLANE ( 'NONE',  #235 ) ;
#70 = ORIENTED_EDGE ( 'NONE', *, *, #251, .F. ) ;
#71 = APPLICATION_CONTEXT ( 'configuration controlled 3d designs of mechanical parts and assemblies' ) ;
#72 = APPLICATION_PROTOCOL_DEFINITION ( 'international standard', 'config_control_design', 1994, #90 ) ;
#73 = VERTEX_POINT ( 'NONE', #101 ) ;
#74 = PRODUCT_DEFINITION ( 'NEZNÁMÝ', '', #17, #119 ) ;
#75 = CARTESIAN_POINT ( 'NONE',  ( 0.000000000000000000, 0.000000000000000000, 7.000000000000000000 ) ) ;
#76 = ORIENTED_EDGE ( 'NONE', *, *, #176, .T. ) ;
#77 = AXIS2_PLACEMENT_3D ( 'NONE', #187, #2, #67 ) ;
#78 = EDGE_CURVE ( 'NONE', #174, #202, #213, .T. ) ;
#79 = CALENDAR_DATE ( 2023, 13, 2 ) ;
#80 = CC_DESIGN_PERSON_AND_ORGANIZATION_ASSIGNMENT ( #138, #39, ( #17 ) ) ;
#81 = DIRECTION ( 'NONE',  ( 0.000000000000000000, 0.000000000000000000, 1.000000000000000000 ) ) ;
#82 = CYLINDRICAL_SURFACE ( 'NONE', #178, 11.00000000000000000 ) ;
#83 = DIRECTION ( 'NONE',  ( 0.000000000000000000, 0.000000000000000000, 1.000000000000000000 ) ) ;
#84 = VERTEX_POINT ( 'NONE', #38 ) ;
#85 = PERSON_AND_ORGANIZATION ( #166, #243 ) ;
#86 = CARTESIAN_POINT ( 'NONE',  ( -6.750000000000000000, 0.000000000000000000, 7.000000000000000000 ) ) ;
#87 = AXIS2_PLACEMENT_3D ( 'NONE', #110, #190, #88 ) ;
#88 = DIRECTION ( 'NONE',  ( 1.000000000000000000, 0.000000000000000000, 0.000000000000000000 ) ) ;
#89 = EDGE_CURVE ( 'NONE', #73, #231, #118, .T. ) ;
#90 = APPLICATION_CONTEXT ( 'configuration controlled 3d designs of mechanical parts and assemblies' ) ;
#91 = ORIENTED_EDGE ( 'NONE', *, *, #40, .T. ) ;
#92 = CARTESIAN_POINT ( 'NONE',  ( 0.000000000000000000, 0.000000000000000000, 250.0000000000000000 ) ) ;
#93 = PERSON_AND_ORGANIZATION_ROLE ( 'design_supplier' ) ;
#94 = APPROVAL_PERSON_ORGANIZATION ( #85, #55, #168 ) ;
#95 = FACE_OUTER_BOUND ( 'NONE', #188, .T. ) ;
#96 = VERTEX_POINT ( 'NONE', #253 ) ;
#97 = CYLINDRICAL_SURFACE ( 'NONE', #5, 6.750000000000000000 ) ;
#98 = CARTESIAN_POINT ( 'NONE',  ( 11.00000000000000000, 1.347111479062088405E-15, 7.000000000000000000 ) ) ;
#99 = PERSON_AND_ORGANIZATION ( #166, #243 ) ;
#100 = CIRCLE ( 'NONE', #87, 11.00000000000000000 ) ;
#101 = CARTESIAN_POINT ( 'NONE',  ( 11.00000000000000000, 1.347111479062088405E-15, 7.000000000000000000 ) ) ;
#102 = DIRECTION ( 'NONE',  ( -1.000000000000000000, 0.000000000000000000, 0.000000000000000000 ) ) ;
#103 = APPROVAL ( #65, 'NEURÈENÝ' ) ;
#104 = CC_DESIGN_PERSON_AND_ORGANIZATION_ASSIGNMENT ( #99, #152, ( #74 ) ) ;
#105 = CIRCLE ( 'NONE', #18, 11.00000000000000000 ) ;
#106 = PERSON_AND_ORGANIZATION_ROLE ( 'classification_officer' ) ;
#107 = ORIENTED_EDGE ( 'NONE', *, *, #78, .T. ) ;
#108 = CC_DESIGN_PERSON_AND_ORGANIZATION_ASSIGNMENT ( #66, #93, ( #17 ) ) ;
#109 = PLANE ( 'NONE',  #182 ) ;
#110 = CARTESIAN_POINT ( 'NONE',  ( 0.000000000000000000, 0.000000000000000000, 7.000000000000000000 ) ) ;
#111 = VERTEX_POINT ( 'NONE', #140 ) ;
#112 =( LENGTH_UNIT ( ) NAMED_UNIT ( * ) SI_UNIT ( .MILLI., .METRE. ) );
#113 = FACE_OUTER_BOUND ( 'NONE', #229, .T. ) ;
#114 =( GEOMETRIC_REPRESENTATION_CONTEXT ( 3 ) GLOBAL_UNCERTAINTY_ASSIGNED_CONTEXT ( ( #233 ) ) GLOBAL_UNIT_ASSIGNED_CONTEXT ( ( #112, #33, #193 ) ) REPRESENTATION_CONTEXT ( 'NONE', 'WORKASPACE' ) );
#115 = EDGE_LOOP ( 'NONE', ( #124, #195 ) ) ;
#116 = CC_DESIGN_PERSON_AND_ORGANIZATION_ASSIGNMENT ( #216, #32, ( #20 ) ) ;
#117 = EDGE_CURVE ( 'NONE', #84, #111, #54, .T. ) ;
#118 = LINE ( 'NONE', #98, #219 ) ;
#119 = DESIGN_CONTEXT ( 'detailed design', #71, 'design' ) ;
#120 = ADVANCED_FACE ( 'NONE', ( #126, #169 ), #122, .T. ) ;
#121 = DIRECTION ( 'NONE',  ( 1.000000000000000000, 0.000000000000000000, 0.000000000000000000 ) ) ;
#122 = PLANE ( 'NONE',  #77 ) ;
#123 = DIRECTION ( 'NONE',  ( 1.000000000000000000, 0.000000000000000000, -0.000000000000000000 ) ) ;
#124 = ORIENTED_EDGE ( 'NONE', *, *, #68, .F. ) ;
#125 = VECTOR ( 'NONE', #210, 1000.000000000000000 ) ;
#126 = FACE_BOUND ( 'NONE', #250, .T. ) ;
#127 = CARTESIAN_POINT ( 'NONE',  ( -11.00000000000000000, 0.000000000000000000, 0.000000000000000000 ) ) ;
#128 = EDGE_LOOP ( 'NONE', ( #247, #194, #156, #34 ) ) ;
#129 = ORIENTED_EDGE ( 'NONE', *, *, #205, .F. ) ;
#130 = ADVANCED_FACE ( 'NONE', ( #222 ), #69, .F. ) ;
#131 = ORIENTED_EDGE ( 'NONE', *, *, #117, .F. ) ;
#132 = CARTESIAN_POINT ( 'NONE',  ( -11.00000000000000000, 0.000000000000000000, 7.000000000000000000 ) ) ;
#133 = AXIS2_PLACEMENT_3D ( 'NONE', #159, #58, #220 ) ;
#134 = CARTESIAN_POINT ( 'NONE',  ( -6.750000000000000000, 0.000000000000000000, 250.0000000000000000 ) ) ;
#135 = CALENDAR_DATE ( 2023, 13, 2 ) ;
#136 = AXIS2_PLACEMENT_3D ( 'NONE', #49, #209, #191 ) ;
#137 = AXIS2_PLACEMENT_3D ( 'NONE', #92, #6, #236 ) ;
#138 = PERSON_AND_ORGANIZATION ( #166, #243 ) ;
#139 = COORDINATED_UNIVERSAL_TIME_OFFSET ( 1, 0, .AHEAD. ) ;
#140 = CARTESIAN_POINT ( 'NONE',  ( 6.750000000000000000, 8.266365894244634333E-16, 250.0000000000000000 ) ) ;
#141 = CIRCLE ( 'NONE', #29, 11.00000000000000000 ) ;
#142 = LOCAL_TIME ( 12, 33, 57.00000000000000000, #139 ) ;
#143 = AXIS2_PLACEMENT_3D ( 'NONE', #177, #150, #232 ) ;
#144 = ORIENTED_EDGE ( 'NONE', *, *, #176, .F. ) ;
#145 = DIRECTION ( 'NONE',  ( 0.000000000000000000, 0.000000000000000000, 1.000000000000000000 ) ) ;
#146 = APPROVAL ( #36, 'NEURÈENÝ' ) ;
#147 = DIRECTION ( 'NONE',  ( -1.000000000000000000, 0.000000000000000000, 0.000000000000000000 ) ) ;
#148 = EDGE_LOOP ( 'NONE', ( #207, #173 ) ) ;
#149 = EDGE_LOOP ( 'NONE', ( #215, #91 ) ) ;
#150 = DIRECTION ( 'NONE',  ( -0.000000000000000000, -0.000000000000000000, -1.000000000000000000 ) ) ;
#151 = PRODUCT_RELATED_PRODUCT_CATEGORY ( 'detail', '', ( #20 ) ) ;
#152 = PERSON_AND_ORGANIZATION_ROLE ( 'creator' ) ;
#153 = APPLICATION_PROTOCOL_DEFINITION ( 'international standard', 'config_control_design', 1994, #71 ) ;
#154 = AXIS2_PLACEMENT_3D ( 'NONE', #238, #83, #44 ) ;
#155 = DIRECTION ( 'NONE',  ( -0.000000000000000000, -0.000000000000000000, -1.000000000000000000 ) ) ;
#156 = ORIENTED_EDGE ( 'NONE', *, *, #158, .T. ) ;
#157 = DIRECTION ( 'NONE',  ( 0.000000000000000000, 0.000000000000000000, 1.000000000000000000 ) ) ;
#158 = EDGE_CURVE ( 'NONE', #231, #192, #105, .T. ) ;
#159 = CARTESIAN_POINT ( 'NONE',  ( 0.000000000000000000, 0.000000000000000000, 7.000000000000000000 ) ) ;
#160 = DATE_AND_TIME ( #79, #30 ) ;
#161 = ADVANCED_FACE ( 'NONE', ( #42 ), #82, .T. ) ;
#162 = APPROVAL_ROLE ( '' ) ;
#163 = CC_DESIGN_APPROVAL ( #55, ( #218 ) ) ;
#164 = DATE_TIME_ROLE ( 'creation_date' ) ;
#165 = DIRECTION ( 'NONE',  ( 0.000000000000000000, 0.000000000000000000, 1.000000000000000000 ) ) ;
#166 = PERSON ( 'NEURÈENÝ', 'NEURÈENÝ', 'NEURÈENÝ', ('NEURÈENÝ'), ('NEURÈENÝ'), ('NEURÈENÝ') ) ;
#167 = CARTESIAN_POINT ( 'NONE',  ( 0.000000000000000000, 0.000000000000000000, 0.000000000000000000 ) ) ;
#168 = APPROVAL_ROLE ( '' ) ;
#169 = FACE_OUTER_BOUND ( 'NONE', #148, .T. ) ;
#170 = AXIS2_PLACEMENT_3D ( 'NONE', #37, #57, #63 ) ;
#171 = CARTESIAN_POINT ( 'NONE',  ( 6.750000000000000000, 8.266365894244634333E-16, 250.0000000000000000 ) ) ;
#172 = EDGE_CURVE ( 'NONE', #73, #96, #141, .T. ) ;
#173 = ORIENTED_EDGE ( 'NONE', *, *, #172, .T. ) ;
#174 = VERTEX_POINT ( 'NONE', #183 ) ;
#175 = ORIENTED_EDGE ( 'NONE', *, *, #64, .F. ) ;
#176 = EDGE_CURVE ( 'NONE', #111, #174, #48, .T. ) ;
#177 = CARTESIAN_POINT ( 'NONE',  ( 0.000000000000000000, 0.000000000000000000, 250.0000000000000000 ) ) ;
#178 = AXIS2_PLACEMENT_3D ( 'NONE', #200, #23, #102 ) ;
#179 = PERSON_AND_ORGANIZATION ( #166, #243 ) ;
#180 = PRODUCT_DEFINITION_SHAPE ( 'NONE', 'NONE',  #74 ) ;
#181 = DIRECTION ( 'NONE',  ( -0.000000000000000000, -0.000000000000000000, -1.000000000000000000 ) ) ;
#182 = AXIS2_PLACEMENT_3D ( 'NONE', #189, #206, #1 ) ;
#183 = CARTESIAN_POINT ( 'NONE',  ( 6.750000000000000000, 8.266365894244634333E-16, 7.000000000000000000 ) ) ;
#184 = APPROVAL_PERSON_ORGANIZATION ( #179, #146, #12 ) ;
#185 = CIRCLE ( 'NONE', #137, 6.750000000000000000 ) ;
#186 = COORDINATED_UNIVERSAL_TIME_OFFSET ( 1, 0, .AHEAD. ) ;
#187 = CARTESIAN_POINT ( 'NONE',  ( 0.000000000000000000, 0.000000000000000000, 7.000000000000000000 ) ) ;
#188 = EDGE_LOOP ( 'NONE', ( #240, #129, #35, #51 ) ) ;
#189 = CARTESIAN_POINT ( 'NONE',  ( 0.000000000000000000, 0.000000000000000000, 250.0000000000000000 ) ) ;
#190 = DIRECTION ( 'NONE',  ( 0.000000000000000000, 0.000000000000000000, 1.000000000000000000 ) ) ;
#191 = DIRECTION ( 'NONE',  ( 1.000000000000000000, 0.000000000000000000, 0.000000000000000000 ) ) ;
#192 = VERTEX_POINT ( 'NONE', #127 ) ;
#193 =( NAMED_UNIT ( * ) SI_UNIT ( $, .STERADIAN. ) SOLID_ANGLE_UNIT ( ) );
#194 = ORIENTED_EDGE ( 'NONE', *, *, #89, .T. ) ;
#195 = ORIENTED_EDGE ( 'NONE', *, *, #158, .F. ) ;
#196 = ADVANCED_FACE ( 'NONE', ( #21 ), #109, .T. ) ;
#197 = CARTESIAN_POINT ( 'NONE',  ( 0.000000000000000000, 0.000000000000000000, 250.0000000000000000 ) ) ;
#198 = DATE_AND_TIME ( #135, #9 ) ;
#199 = DATE_AND_TIME ( #15, #212 ) ;
#200 = CARTESIAN_POINT ( 'NONE',  ( 0.000000000000000000, 0.000000000000000000, 7.000000000000000000 ) ) ;
#201 = CC_DESIGN_APPROVAL ( #103, ( #17 ) ) ;
#202 = VERTEX_POINT ( 'NONE', #86 ) ;
#203 = VECTOR ( 'NONE', #211, 1000.000000000000000 ) ;
#204 = DIRECTION ( 'NONE',  ( -0.000000000000000000, -0.000000000000000000, -1.000000000000000000 ) ) ;
#205 = EDGE_CURVE ( 'NONE', #96, #73, #100, .T. ) ;
#206 = DIRECTION ( 'NONE',  ( 0.000000000000000000, 0.000000000000000000, 1.000000000000000000 ) ) ;
#207 = ORIENTED_EDGE ( 'NONE', *, *, #205, .T. ) ;
#208 = ADVANCED_BREP_SHAPE_REPRESENTATION ( '9845', ( #8, #136 ), #114 ) ;
#209 = DIRECTION ( 'NONE',  ( 0.000000000000000000, 0.000000000000000000, 1.000000000000000000 ) ) ;
#210 = DIRECTION ( 'NONE',  ( -0.000000000000000000, -0.000000000000000000, -1.000000000000000000 ) ) ;
#211 = DIRECTION ( 'NONE',  ( -0.000000000000000000, -0.000000000000000000, -1.000000000000000000 ) ) ;
#212 = LOCAL_TIME ( 12, 33, 57.00000000000000000, #43 ) ;
#213 = CIRCLE ( 'NONE', #133, 6.750000000000000000 ) ;
#214 = ADVANCED_FACE ( 'NONE', ( #95 ), #248, .T. ) ;
#215 = ORIENTED_EDGE ( 'NONE', *, *, #117, .T. ) ;
#216 = PERSON_AND_ORGANIZATION ( #166, #243 ) ;
#217 = CARTESIAN_POINT ( 'NONE',  ( 0.000000000000000000, 0.000000000000000000, 7.000000000000000000 ) ) ;
#218 = SECURITY_CLASSIFICATION ( '', '', #11 ) ;
#219 = VECTOR ( 'NONE', #181, 1000.000000000000000 ) ;
#220 = DIRECTION ( 'NONE',  ( 1.000000000000000000, 0.000000000000000000, 0.000000000000000000 ) ) ;
#221 = DATE_TIME_ROLE ( 'classification_date' ) ;
#222 = FACE_OUTER_BOUND ( 'NONE', #115, .T. ) ;
#223 = DATE_AND_TIME ( #62, #142 ) ;
#224 = CARTESIAN_POINT ( 'NONE',  ( 0.000000000000000000, 0.000000000000000000, 7.000000000000000000 ) ) ;
#225 = CC_DESIGN_PERSON_AND_ORGANIZATION_ASSIGNMENT ( #19, #106, ( #218 ) ) ;
#226 = MECHANICAL_CONTEXT ( 'NONE', #90, 'mechanical' ) ;
#227 = APPROVAL_STATUS ( 'not_yet_approved' ) ;
#228 = CARTESIAN_POINT ( 'NONE',  ( 0.000000000000000000, 0.000000000000000000, 0.000000000000000000 ) ) ;
#229 = EDGE_LOOP ( 'NONE', ( #7, #76, #107, #70 ) ) ;
#230 = ORIENTED_EDGE ( 'NONE', *, *, #64, .T. ) ;
#231 = VERTEX_POINT ( 'NONE', #50 ) ;
#232 = DIRECTION ( 'NONE',  ( -1.000000000000000000, 0.000000000000000000, 0.000000000000000000 ) ) ;
#233 = UNCERTAINTY_MEASURE_WITH_UNIT (LENGTH_MEASURE( 1.000000000000000082E-05 ), #112, 'distance_accuracy_value', 'NONE');
#234 = APPROVAL_DATE_TIME ( #160, #55 ) ;
#235 = AXIS2_PLACEMENT_3D ( 'NONE', #228, #81, #123 ) ;
#236 = DIRECTION ( 'NONE',  ( 1.000000000000000000, 0.000000000000000000, 0.000000000000000000 ) ) ;
#237 = CALENDAR_DATE ( 2023, 13, 2 ) ;
#238 = CARTESIAN_POINT ( 'NONE',  ( 0.000000000000000000, 0.000000000000000000, 250.0000000000000000 ) ) ;
#239 = DIRECTION ( 'NONE',  ( 1.000000000000000000, 0.000000000000000000, 0.000000000000000000 ) ) ;
#240 = ORIENTED_EDGE ( 'NONE', *, *, #89, .F. ) ;
#241 = PERSON_AND_ORGANIZATION ( #166, #243 ) ;
#242 = CC_DESIGN_DATE_AND_TIME_ASSIGNMENT ( #252, #221, ( #218 ) ) ;
#243 = ORGANIZATION ( 'NEURÈENÝ', 'NEURÈENÝ', '' ) ;
#244 = ADVANCED_FACE ( 'NONE', ( #113 ), #97, .T. ) ;
#245 = DIRECTION ( 'NONE',  ( -0.000000000000000000, -0.000000000000000000, -1.000000000000000000 ) ) ;
#246 = CC_DESIGN_APPROVAL ( #146, ( #74 ) ) ;
#247 = ORIENTED_EDGE ( 'NONE', *, *, #172, .F. ) ;
#248 = CYLINDRICAL_SURFACE ( 'NONE', #14, 11.00000000000000000 ) ;
#249 = CYLINDRICAL_SURFACE ( 'NONE', #143, 6.750000000000000000 ) ;
#250 = EDGE_LOOP ( 'NONE', ( #175, #4 ) ) ;
#251 = EDGE_CURVE ( 'NONE', #84, #202, #61, .T. ) ;
#252 = DATE_AND_TIME ( #237, #46 ) ;
#253 = CARTESIAN_POINT ( 'NONE',  ( -11.00000000000000000, 0.000000000000000000, 7.000000000000000000 ) ) ;
#254 = APPROVAL_PERSON_ORGANIZATION ( #241, #103, #162 ) ;
#255 = CIRCLE ( 'NONE', #16, 6.750000000000000000 ) ;
ENDSEC;
END-ISO-10303-21;
