ISO-10303-21;
HEADER;
FILE_DESCRIPTION (( 'STEP AP203' ),
    '1' );
FILE_NAME ('8c63.STEP',
    '2022-07-07T17:45:31',
    ( '' ),
    ( '' ),
    'SwSTEP 2.0',
    'SolidWorks 2019',
    '' );
FILE_SCHEMA (( 'CONFIG_CONTROL_DESIGN' ));
ENDSEC;

DATA;
#1 = CARTESIAN_POINT ( 'NONE',  ( -5.000000000000000000, 0.000000000000000000, 0.000000000000000000 ) ) ;
#2 = ORIENTED_EDGE ( 'NONE', *, *, #49, .F. ) ;
#3 = CLOSED_SHELL ( 'NONE', ( #117, #115, #55, #195, #69, #199, #80 ) ) ;
#4 = DIRECTION ( 'NONE',  ( 1.000000000000000000, 0.000000000000000000, 0.000000000000000000 ) ) ;
#5 = APPROVAL_PERSON_ORGANIZATION ( #245, #152, #56 ) ;
#6 = CARTESIAN_POINT ( 'NONE',  ( 0.000000000000000000, 0.000000000000000000, 0.000000000000000000 ) ) ;
#7 = VECTOR ( 'NONE', #247, 1000.000000000000000 ) ;
#8 = PERSON_AND_ORGANIZATION_ROLE ( 'design_supplier' ) ;
#9 = AXIS2_PLACEMENT_3D ( 'NONE', #16, #81, #197 ) ;
#10 = UNCERTAINTY_MEASURE_WITH_UNIT (LENGTH_MEASURE( 1.000000000000000082E-05 ), #173, 'distance_accuracy_value', 'NONE');
#11 = APPROVAL_STATUS ( 'not_yet_approved' ) ;
#12 = CC_DESIGN_DATE_AND_TIME_ASSIGNMENT ( #73, #149, ( #147 ) ) ;
#13 = AXIS2_PLACEMENT_3D ( 'NONE', #237, #175, #40 ) ;
#14 = CC_DESIGN_PERSON_AND_ORGANIZATION_ASSIGNMENT ( #240, #33, ( #147 ) ) ;
#15 = APPLICATION_PROTOCOL_DEFINITION ( 'international standard', 'config_control_design', 1994, #254 ) ;
#16 = CARTESIAN_POINT ( 'NONE',  ( 0.000000000000000000, 0.000000000000000000, 0.000000000000000000 ) ) ;
#17 = FACE_OUTER_BOUND ( 'NONE', #64, .T. ) ;
#18 = VECTOR ( 'NONE', #126, 1000.000000000000000 ) ;
#19 = VERTEX_POINT ( 'NONE', #142 ) ;
#20 = DIRECTION ( 'NONE',  ( -1.000000000000000000, 0.000000000000000000, 0.000000000000000000 ) ) ;
#21 = AXIS2_PLACEMENT_3D ( 'NONE', #170, #244, #188 ) ;
#22 = DATE_AND_TIME ( #41, #129 ) ;
#23 = VERTEX_POINT ( 'NONE', #45 ) ;
#24 = CARTESIAN_POINT ( 'NONE',  ( 5.000000000000000000, 6.123233995736766282E-16, 0.000000000000000000 ) ) ;
#25 = COORDINATED_UNIVERSAL_TIME_OFFSET ( 1, 0, .AHEAD. ) ;
#26 = ORIENTED_EDGE ( 'NONE', *, *, #112, .F. ) ;
#27 = CYLINDRICAL_SURFACE ( 'NONE', #74, 5.000000000000000000 ) ;
#28 = CC_DESIGN_DATE_AND_TIME_ASSIGNMENT ( #22, #87, ( #32 ) ) ;
#29 = DIRECTION ( 'NONE',  ( -1.000000000000000000, 0.000000000000000000, 0.000000000000000000 ) ) ;
#30 = EDGE_CURVE ( 'NONE', #191, #123, #85, .T. ) ;
#31 = APPROVAL_ROLE ( '' ) ;
#32 = PRODUCT_DEFINITION ( 'NEZNÁMÝ', '', #76, #146 ) ;
#33 = PERSON_AND_ORGANIZATION_ROLE ( 'classification_officer' ) ;
#34 = CC_DESIGN_PERSON_AND_ORGANIZATION_ASSIGNMENT ( #201, #96, ( #76 ) ) ;
#35 = CC_DESIGN_APPROVAL ( #152, ( #32 ) ) ;
#36 = CARTESIAN_POINT ( 'NONE',  ( 0.000000000000000000, 0.000000000000000000, 3.000000000000000000 ) ) ;
#37 = VERTEX_POINT ( 'NONE', #174 ) ;
#38 = DATE_AND_TIME ( #135, #179 ) ;
#39 = ORIENTED_EDGE ( 'NONE', *, *, #57, .F. ) ;
#40 = DIRECTION ( 'NONE',  ( 1.000000000000000000, 0.000000000000000000, 0.000000000000000000 ) ) ;
#41 = CALENDAR_DATE ( 2022, 7, 7 ) ;
#42 = ORIENTED_EDGE ( 'NONE', *, *, #156, .F. ) ;
#43 = FACE_BOUND ( 'NONE', #236, .T. ) ;
#44 = MECHANICAL_CONTEXT ( 'NONE', #254, 'mechanical' ) ;
#45 = CARTESIAN_POINT ( 'NONE',  ( -2.600000000000000089, 0.000000000000000000, 203.0000000000000000 ) ) ;
#46 = DIRECTION ( 'NONE',  ( -1.000000000000000000, 0.000000000000000000, 0.000000000000000000 ) ) ;
#47 = DIRECTION ( 'NONE',  ( -0.000000000000000000, -0.000000000000000000, -1.000000000000000000 ) ) ;
#48 = CIRCLE ( 'NONE', #93, 2.600000000000000089 ) ;
#49 = EDGE_CURVE ( 'NONE', #226, #88, #181, .T. ) ;
#50 = COORDINATED_UNIVERSAL_TIME_OFFSET ( 1, 0, .AHEAD. ) ;
#51 = CIRCLE ( 'NONE', #122, 2.600000000000000089 ) ;
#52 = SHAPE_DEFINITION_REPRESENTATION ( #219, #192 ) ;
#53 = CALENDAR_DATE ( 2022, 7, 7 ) ;
#54 = ORIENTED_EDGE ( 'NONE', *, *, #164, .T. ) ;
#55 = ADVANCED_FACE ( 'NONE', ( #128 ), #92, .T. ) ;
#56 = APPROVAL_ROLE ( '' ) ;
#57 = EDGE_CURVE ( 'NONE', #23, #191, #100, .T. ) ;
#58 = EDGE_LOOP ( 'NONE', ( #54, #61 ) ) ;
#59 = CARTESIAN_POINT ( 'NONE',  ( 0.000000000000000000, 0.000000000000000000, 0.000000000000000000 ) ) ;
#60 = DIRECTION ( 'NONE',  ( 1.000000000000000000, 0.000000000000000000, 0.000000000000000000 ) ) ;
#61 = ORIENTED_EDGE ( 'NONE', *, *, #98, .T. ) ;
#62 = CARTESIAN_POINT ( 'NONE',  ( 0.000000000000000000, 0.000000000000000000, 203.0000000000000000 ) ) ;
#63 = DIRECTION ( 'NONE',  ( -0.000000000000000000, -0.000000000000000000, -1.000000000000000000 ) ) ;
#64 = EDGE_LOOP ( 'NONE', ( #209, #39, #102, #225 ) ) ;
#65 = DIRECTION ( 'NONE',  ( 0.000000000000000000, 0.000000000000000000, 1.000000000000000000 ) ) ;
#66 = CC_DESIGN_PERSON_AND_ORGANIZATION_ASSIGNMENT ( #72, #8, ( #76 ) ) ;
#67 = ORIENTED_EDGE ( 'NONE', *, *, #239, .F. ) ;
#68 = DIRECTION ( 'NONE',  ( 1.000000000000000000, 0.000000000000000000, -0.000000000000000000 ) ) ;
#69 = ADVANCED_FACE ( 'NONE', ( #107 ), #190, .F. ) ;
#70 = APPROVAL_PERSON_ORGANIZATION ( #182, #105, #113 ) ;
#71 = EDGE_CURVE ( 'NONE', #37, #226, #94, .T. ) ;
#72 = PERSON_AND_ORGANIZATION ( #99, #150 ) ;
#73 = DATE_AND_TIME ( #114, #165 ) ;
#74 = AXIS2_PLACEMENT_3D ( 'NONE', #255, #47, #29 ) ;
#75 = COORDINATED_UNIVERSAL_TIME_OFFSET ( 1, 0, .AHEAD. ) ;
#76 = PRODUCT_DEFINITION_FORMATION_WITH_SPECIFIED_SOURCE ( 'LIBOVOLNÝ', '', #178, .NOT_KNOWN. ) ;
#77 = CARTESIAN_POINT ( 'NONE',  ( -2.600000000000000089, 0.000000000000000000, 203.0000000000000000 ) ) ;
#78 = APPLICATION_CONTEXT ( 'configuration controlled 3d designs of mechanical parts and assemblies' ) ;
#79 = EDGE_LOOP ( 'NONE', ( #215, #196 ) ) ;
#80 = ADVANCED_FACE ( 'NONE', ( #144 ), #193, .T. ) ;
#81 = DIRECTION ( 'NONE',  ( 0.000000000000000000, 0.000000000000000000, 1.000000000000000000 ) ) ;
#82 = CIRCLE ( 'NONE', #214, 2.600000000000000089 ) ;
#83 = CARTESIAN_POINT ( 'NONE',  ( 0.000000000000000000, 0.000000000000000000, 3.000000000000000000 ) ) ;
#84 = CARTESIAN_POINT ( 'NONE',  ( 0.000000000000000000, 0.000000000000000000, 3.000000000000000000 ) ) ;
#85 = LINE ( 'NONE', #187, #18 ) ;
#86 = DIRECTION ( 'NONE',  ( 0.000000000000000000, 0.000000000000000000, 1.000000000000000000 ) ) ;
#87 = DATE_TIME_ROLE ( 'creation_date' ) ;
#88 = VERTEX_POINT ( 'NONE', #24 ) ;
#89 = FACE_OUTER_BOUND ( 'NONE', #58, .T. ) ;
#90 =( NAMED_UNIT ( * ) SI_UNIT ( $, .STERADIAN. ) SOLID_ANGLE_UNIT ( ) );
#91 = EDGE_LOOP ( 'NONE', ( #109, #171, #155, #246 ) ) ;
#92 = CYLINDRICAL_SURFACE ( 'NONE', #167, 5.000000000000000000 ) ;
#93 = AXIS2_PLACEMENT_3D ( 'NONE', #62, #140, #160 ) ;
#94 = LINE ( 'NONE', #210, #163 ) ;
#95 = VECTOR ( 'NONE', #63, 1000.000000000000000 ) ;
#96 = PERSON_AND_ORGANIZATION_ROLE ( 'creator' ) ;
#97 = LOCAL_TIME ( 19, 45, 31.00000000000000000, #50 ) ;
#98 = EDGE_CURVE ( 'NONE', #19, #37, #154, .T. ) ;
#99 = PERSON ( 'NEURÈENÝ', 'NEURÈENÝ', 'NEURÈENÝ', ('NEURÈENÝ'), ('NEURÈENÝ'), ('NEURÈENÝ') ) ;
#100 = CIRCLE ( 'NONE', #131, 2.600000000000000089 ) ;
#101 = DIRECTION ( 'NONE',  ( -0.000000000000000000, -0.000000000000000000, -1.000000000000000000 ) ) ;
#102 = ORIENTED_EDGE ( 'NONE', *, *, #218, .T. ) ;
#103 = CARTESIAN_POINT ( 'NONE',  ( 2.600000000000000089, 3.184081677783118191E-16, 3.000000000000000000 ) ) ;
#104 = DIRECTION ( 'NONE',  ( 1.000000000000000000, 0.000000000000000000, -0.000000000000000000 ) ) ;
#105 = APPROVAL ( #11, 'NEURÈENÝ' ) ;
#106 = EDGE_LOOP ( 'NONE', ( #2, #137 ) ) ;
#107 = FACE_OUTER_BOUND ( 'NONE', #106, .T. ) ;
#108 = LINE ( 'NONE', #77, #95 ) ;
#109 = ORIENTED_EDGE ( 'NONE', *, *, #98, .F. ) ;
#110 = CYLINDRICAL_SURFACE ( 'NONE', #151, 2.600000000000000089 ) ;
#111 = DIRECTION ( 'NONE',  ( 0.000000000000000000, 0.000000000000000000, 1.000000000000000000 ) ) ;
#112 = EDGE_CURVE ( 'NONE', #123, #153, #51, .T. ) ;
#113 = APPROVAL_ROLE ( '' ) ;
#114 = CALENDAR_DATE ( 2022, 7, 7 ) ;
#115 = ADVANCED_FACE ( 'NONE', ( #145 ), #27, .T. ) ;
#116 = AXIS2_PLACEMENT_3D ( 'NONE', #141, #229, #133 ) ;
#117 = ADVANCED_FACE ( 'NONE', ( #121 ), #110, .T. ) ;
#118 = ORIENTED_EDGE ( 'NONE', *, *, #71, .T. ) ;
#119 =( NAMED_UNIT ( * ) PLANE_ANGLE_UNIT ( ) SI_UNIT ( $, .RADIAN. ) );
#120 = ORIENTED_EDGE ( 'NONE', *, *, #218, .F. ) ;
#121 = FACE_OUTER_BOUND ( 'NONE', #189, .T. ) ;
#122 = AXIS2_PLACEMENT_3D ( 'NONE', #234, #198, #4 ) ;
#123 = VERTEX_POINT ( 'NONE', #103 ) ;
#124 = DIRECTION ( 'NONE',  ( -0.000000000000000000, -0.000000000000000000, -1.000000000000000000 ) ) ;
#125 = APPROVAL_DATE_TIME ( #38, #152 ) ;
#126 = DIRECTION ( 'NONE',  ( -0.000000000000000000, -0.000000000000000000, -1.000000000000000000 ) ) ;
#127 = CARTESIAN_POINT ( 'NONE',  ( 0.000000000000000000, 0.000000000000000000, 203.0000000000000000 ) ) ;
#128 = FACE_OUTER_BOUND ( 'NONE', #230, .T. ) ;
#129 = LOCAL_TIME ( 19, 45, 31.00000000000000000, #211 ) ;
#130 = COORDINATED_UNIVERSAL_TIME_OFFSET ( 1, 0, .AHEAD. ) ;
#131 = AXIS2_PLACEMENT_3D ( 'NONE', #172, #111, #227 ) ;
#132 = DATE_AND_TIME ( #53, #97 ) ;
#133 = DIRECTION ( 'NONE',  ( 1.000000000000000000, 0.000000000000000000, 0.000000000000000000 ) ) ;
#134 = AXIS2_PLACEMENT_3D ( 'NONE', #84, #235, #104 ) ;
#135 = CALENDAR_DATE ( 2022, 7, 7 ) ;
#136 = EDGE_CURVE ( 'NONE', #88, #226, #176, .T. ) ;
#137 = ORIENTED_EDGE ( 'NONE', *, *, #136, .F. ) ;
#138 = DIRECTION ( 'NONE',  ( 1.000000000000000000, 0.000000000000000000, -0.000000000000000000 ) ) ;
#139 = APPLICATION_PROTOCOL_DEFINITION ( 'international standard', 'config_control_design', 1994, #78 ) ;
#140 = DIRECTION ( 'NONE',  ( 0.000000000000000000, 0.000000000000000000, 1.000000000000000000 ) ) ;
#141 = CARTESIAN_POINT ( 'NONE',  ( 0.000000000000000000, 0.000000000000000000, 0.000000000000000000 ) ) ;
#142 = CARTESIAN_POINT ( 'NONE',  ( 5.000000000000000000, 6.123233995736766282E-16, 3.000000000000000000 ) ) ;
#143 = APPROVAL_PERSON_ORGANIZATION ( #203, #238, #31 ) ;
#144 = FACE_OUTER_BOUND ( 'NONE', #79, .T. ) ;
#145 = FACE_OUTER_BOUND ( 'NONE', #91, .T. ) ;
#146 = DESIGN_CONTEXT ( 'detailed design', #78, 'design' ) ;
#147 = SECURITY_CLASSIFICATION ( '', '', #222 ) ;
#148 = CC_DESIGN_PERSON_AND_ORGANIZATION_ASSIGNMENT ( #166, #252, ( #178 ) ) ;
#149 = DATE_TIME_ROLE ( 'classification_date' ) ;
#150 = ORGANIZATION ( 'NEURÈENÝ', 'NEURÈENÝ', '' ) ;
#151 = AXIS2_PLACEMENT_3D ( 'NONE', #127, #101, #20 ) ;
#152 = APPROVAL ( #194, 'NEURÈENÝ' ) ;
#153 = VERTEX_POINT ( 'NONE', #217 ) ;
#154 = CIRCLE ( 'NONE', #13, 5.000000000000000000 ) ;
#155 = ORIENTED_EDGE ( 'NONE', *, *, #136, .T. ) ;
#156 = EDGE_CURVE ( 'NONE', #19, #88, #169, .T. ) ;
#157 = DIRECTION ( 'NONE',  ( -0.000000000000000000, -0.000000000000000000, -1.000000000000000000 ) ) ;
#158 = DIRECTION ( 'NONE',  ( 1.000000000000000000, 0.000000000000000000, 0.000000000000000000 ) ) ;
#159 = ORIENTED_EDGE ( 'NONE', *, *, #112, .T. ) ;
#160 = DIRECTION ( 'NONE',  ( 1.000000000000000000, 0.000000000000000000, 0.000000000000000000 ) ) ;
#161 = LOCAL_TIME ( 19, 45, 31.00000000000000000, #130 ) ;
#162 = DIRECTION ( 'NONE',  ( 0.000000000000000000, 0.000000000000000000, 1.000000000000000000 ) ) ;
#163 = VECTOR ( 'NONE', #124, 1000.000000000000000 ) ;
#164 = EDGE_CURVE ( 'NONE', #37, #19, #241, .T. ) ;
#165 = LOCAL_TIME ( 19, 45, 31.00000000000000000, #75 ) ;
#166 = PERSON_AND_ORGANIZATION ( #99, #150 ) ;
#167 = AXIS2_PLACEMENT_3D ( 'NONE', #83, #157, #46 ) ;
#168 = CARTESIAN_POINT ( 'NONE',  ( 5.000000000000000000, 6.123233995736766282E-16, 3.000000000000000000 ) ) ;
#169 = LINE ( 'NONE', #168, #7 ) ;
#170 = CARTESIAN_POINT ( 'NONE',  ( 0.000000000000000000, 0.000000000000000000, 203.0000000000000000 ) ) ;
#171 = ORIENTED_EDGE ( 'NONE', *, *, #156, .T. ) ;
#172 = CARTESIAN_POINT ( 'NONE',  ( 0.000000000000000000, 0.000000000000000000, 203.0000000000000000 ) ) ;
#173 =( LENGTH_UNIT ( ) NAMED_UNIT ( * ) SI_UNIT ( .MILLI., .METRE. ) );
#174 = CARTESIAN_POINT ( 'NONE',  ( -5.000000000000000000, 0.000000000000000000, 3.000000000000000000 ) ) ;
#175 = DIRECTION ( 'NONE',  ( 0.000000000000000000, 0.000000000000000000, 1.000000000000000000 ) ) ;
#176 = CIRCLE ( 'NONE', #184, 5.000000000000000000 ) ;
#177 = DIRECTION ( 'NONE',  ( 0.000000000000000000, 0.000000000000000000, 1.000000000000000000 ) ) ;
#178 = PRODUCT ( '8c63', '8c63', '', ( #44 ) ) ;
#179 = LOCAL_TIME ( 19, 45, 31.00000000000000000, #25 ) ;
#180 = APPROVAL_STATUS ( 'not_yet_approved' ) ;
#181 = CIRCLE ( 'NONE', #9, 5.000000000000000000 ) ;
#182 = PERSON_AND_ORGANIZATION ( #99, #150 ) ;
#183 = AXIS2_PLACEMENT_3D ( 'NONE', #251, #86, #231 ) ;
#184 = AXIS2_PLACEMENT_3D ( 'NONE', #6, #177, #158 ) ;
#185 = EDGE_CURVE ( 'NONE', #191, #23, #48, .T. ) ;
#186 = CYLINDRICAL_SURFACE ( 'NONE', #21, 2.600000000000000089 ) ;
#187 = CARTESIAN_POINT ( 'NONE',  ( 2.600000000000000089, 3.184081677783118191E-16, 203.0000000000000000 ) ) ;
#188 = DIRECTION ( 'NONE',  ( -1.000000000000000000, 0.000000000000000000, 0.000000000000000000 ) ) ;
#189 = EDGE_LOOP ( 'NONE', ( #253, #207, #159, #120 ) ) ;
#190 = PLANE ( 'NONE',  #233 ) ;
#191 = VERTEX_POINT ( 'NONE', #212 ) ;
#192 = ADVANCED_BREP_SHAPE_REPRESENTATION ( '8c63', ( #228, #116 ), #206 ) ;
#193 = PLANE ( 'NONE',  #223 ) ;
#194 = APPROVAL_STATUS ( 'not_yet_approved' ) ;
#195 = ADVANCED_FACE ( 'NONE', ( #43, #89 ), #205, .T. ) ;
#196 = ORIENTED_EDGE ( 'NONE', *, *, #185, .T. ) ;
#197 = DIRECTION ( 'NONE',  ( 1.000000000000000000, 0.000000000000000000, 0.000000000000000000 ) ) ;
#198 = DIRECTION ( 'NONE',  ( 0.000000000000000000, 0.000000000000000000, 1.000000000000000000 ) ) ;
#199 = ADVANCED_FACE ( 'NONE', ( #17 ), #186, .T. ) ;
#200 = APPROVAL_DATE_TIME ( #132, #238 ) ;
#201 = PERSON_AND_ORGANIZATION ( #99, #150 ) ;
#202 = CC_DESIGN_SECURITY_CLASSIFICATION ( #147, ( #76 ) ) ;
#203 = PERSON_AND_ORGANIZATION ( #99, #150 ) ;
#204 = APPROVAL_DATE_TIME ( #221, #105 ) ;
#205 = PLANE ( 'NONE',  #134 ) ;
#206 =( GEOMETRIC_REPRESENTATION_CONTEXT ( 3 ) GLOBAL_UNCERTAINTY_ASSIGNED_CONTEXT ( ( #10 ) ) GLOBAL_UNIT_ASSIGNED_CONTEXT ( ( #173, #119, #90 ) ) REPRESENTATION_CONTEXT ( 'NONE', 'WORKASPACE' ) );
#207 = ORIENTED_EDGE ( 'NONE', *, *, #30, .T. ) ;
#208 = PERSON_AND_ORGANIZATION ( #99, #150 ) ;
#209 = ORIENTED_EDGE ( 'NONE', *, *, #30, .F. ) ;
#210 = CARTESIAN_POINT ( 'NONE',  ( -5.000000000000000000, 0.000000000000000000, 3.000000000000000000 ) ) ;
#211 = COORDINATED_UNIVERSAL_TIME_OFFSET ( 1, 0, .AHEAD. ) ;
#212 = CARTESIAN_POINT ( 'NONE',  ( 2.600000000000000089, 3.184081677783118191E-16, 203.0000000000000000 ) ) ;
#213 = DIRECTION ( 'NONE',  ( 0.000000000000000000, 0.000000000000000000, 1.000000000000000000 ) ) ;
#214 = AXIS2_PLACEMENT_3D ( 'NONE', #36, #213, #60 ) ;
#215 = ORIENTED_EDGE ( 'NONE', *, *, #57, .T. ) ;
#216 = CARTESIAN_POINT ( 'NONE',  ( 0.000000000000000000, 0.000000000000000000, 203.0000000000000000 ) ) ;
#217 = CARTESIAN_POINT ( 'NONE',  ( -2.600000000000000089, 0.000000000000000000, 3.000000000000000000 ) ) ;
#218 = EDGE_CURVE ( 'NONE', #23, #153, #108, .T. ) ;
#219 = PRODUCT_DEFINITION_SHAPE ( 'NONE', 'NONE',  #32 ) ;
#220 = PRODUCT_RELATED_PRODUCT_CATEGORY ( 'detail', '', ( #178 ) ) ;
#221 = DATE_AND_TIME ( #242, #161 ) ;
#222 = SECURITY_CLASSIFICATION_LEVEL ( 'unclassified' ) ;
#223 = AXIS2_PLACEMENT_3D ( 'NONE', #216, #162, #68 ) ;
#224 = CC_DESIGN_APPROVAL ( #105, ( #147 ) ) ;
#225 = ORIENTED_EDGE ( 'NONE', *, *, #239, .T. ) ;
#226 = VERTEX_POINT ( 'NONE', #1 ) ;
#227 = DIRECTION ( 'NONE',  ( 1.000000000000000000, 0.000000000000000000, 0.000000000000000000 ) ) ;
#228 = MANIFOLD_SOLID_BREP ( 'Pøidat vysunutím3', #3 ) ;
#229 = DIRECTION ( 'NONE',  ( 0.000000000000000000, 0.000000000000000000, 1.000000000000000000 ) ) ;
#230 = EDGE_LOOP ( 'NONE', ( #42, #232, #118, #250 ) ) ;
#231 = DIRECTION ( 'NONE',  ( 1.000000000000000000, 0.000000000000000000, 0.000000000000000000 ) ) ;
#232 = ORIENTED_EDGE ( 'NONE', *, *, #164, .F. ) ;
#233 = AXIS2_PLACEMENT_3D ( 'NONE', #59, #65, #138 ) ;
#234 = CARTESIAN_POINT ( 'NONE',  ( 0.000000000000000000, 0.000000000000000000, 3.000000000000000000 ) ) ;
#235 = DIRECTION ( 'NONE',  ( 0.000000000000000000, 0.000000000000000000, 1.000000000000000000 ) ) ;
#236 = EDGE_LOOP ( 'NONE', ( #67, #26 ) ) ;
#237 = CARTESIAN_POINT ( 'NONE',  ( 0.000000000000000000, 0.000000000000000000, 3.000000000000000000 ) ) ;
#238 = APPROVAL ( #180, 'NEURÈENÝ' ) ;
#239 = EDGE_CURVE ( 'NONE', #153, #123, #82, .T. ) ;
#240 = PERSON_AND_ORGANIZATION ( #99, #150 ) ;
#241 = CIRCLE ( 'NONE', #183, 5.000000000000000000 ) ;
#242 = CALENDAR_DATE ( 2022, 7, 7 ) ;
#243 = CC_DESIGN_PERSON_AND_ORGANIZATION_ASSIGNMENT ( #208, #249, ( #32 ) ) ;
#244 = DIRECTION ( 'NONE',  ( -0.000000000000000000, -0.000000000000000000, -1.000000000000000000 ) ) ;
#245 = PERSON_AND_ORGANIZATION ( #99, #150 ) ;
#246 = ORIENTED_EDGE ( 'NONE', *, *, #71, .F. ) ;
#247 = DIRECTION ( 'NONE',  ( -0.000000000000000000, -0.000000000000000000, -1.000000000000000000 ) ) ;
#248 = CC_DESIGN_APPROVAL ( #238, ( #76 ) ) ;
#249 = PERSON_AND_ORGANIZATION_ROLE ( 'creator' ) ;
#250 = ORIENTED_EDGE ( 'NONE', *, *, #49, .T. ) ;
#251 = CARTESIAN_POINT ( 'NONE',  ( 0.000000000000000000, 0.000000000000000000, 3.000000000000000000 ) ) ;
#252 = PERSON_AND_ORGANIZATION_ROLE ( 'design_owner' ) ;
#253 = ORIENTED_EDGE ( 'NONE', *, *, #185, .F. ) ;
#254 = APPLICATION_CONTEXT ( 'configuration controlled 3d designs of mechanical parts and assemblies' ) ;
#255 = CARTESIAN_POINT ( 'NONE',  ( 0.000000000000000000, 0.000000000000000000, 3.000000000000000000 ) ) ;
ENDSEC;
END-ISO-10303-21;
