ISO-10303-21;
HEADER;
FILE_DESCRIPTION (( 'STEP AP203' ),
    '1' );
FILE_NAME ('3531.STEP',
    '2022-07-07T17:07:26',
    ( '' ),
    ( '' ),
    'SwSTEP 2.0',
    'SolidWorks 2019',
    '' );
FILE_SCHEMA (( 'CONFIG_CONTROL_DESIGN' ));
ENDSEC;

DATA;
#1 = AXIS2_PLACEMENT_3D ( 'NONE', #171, #166, #49 ) ;
#2 = ORGANIZATION ( 'NEURÈENÝ', 'NEURÈENÝ', '' ) ;
#3 = AXIS2_PLACEMENT_3D ( 'NONE', #196, #210, #154 ) ;
#4 = CARTESIAN_POINT ( 'NONE',  ( 0.000000000000000000, 0.000000000000000000, 407.0000000000000000 ) ) ;
#5 = APPROVAL_ROLE ( '' ) ;
#6 = DIRECTION ( 'NONE',  ( 0.000000000000000000, 0.000000000000000000, 1.000000000000000000 ) ) ;
#7 = DATE_AND_TIME ( #190, #69 ) ;
#8 = CARTESIAN_POINT ( 'NONE',  ( 0.000000000000000000, 0.000000000000000000, 407.0000000000000000 ) ) ;
#9 = PLANE ( 'NONE',  #109 ) ;
#10 = MECHANICAL_CONTEXT ( 'NONE', #97, 'mechanical' ) ;
#11 = CIRCLE ( 'NONE', #215, 8.000000000000000000 ) ;
#12 = ADVANCED_FACE ( 'NONE', ( #14 ), #137, .T. ) ;
#13 = ORIENTED_EDGE ( 'NONE', *, *, #80, .T. ) ;
#14 = FACE_OUTER_BOUND ( 'NONE', #54, .T. ) ;
#15 = ORIENTED_EDGE ( 'NONE', *, *, #199, .F. ) ;
#16 = AXIS2_PLACEMENT_3D ( 'NONE', #106, #186, #86 ) ;
#17 = ORIENTED_EDGE ( 'NONE', *, *, #161, .F. ) ;
#18 = SECURITY_CLASSIFICATION_LEVEL ( 'unclassified' ) ;
#19 = CC_DESIGN_PERSON_AND_ORGANIZATION_ASSIGNMENT ( #158, #65, ( #103 ) ) ;
#20 = VECTOR ( 'NONE', #52, 1000.000000000000000 ) ;
#21 = EDGE_CURVE ( 'NONE', #79, #118, #214, .T. ) ;
#22 = CIRCLE ( 'NONE', #27, 11.00000000000000000 ) ;
#23 = LOCAL_TIME ( 19, 7, 26.00000000000000000, #87 ) ;
#24 = DIRECTION ( 'NONE',  ( -1.000000000000000000, 0.000000000000000000, 0.000000000000000000 ) ) ;
#25 = DIRECTION ( 'NONE',  ( 1.000000000000000000, 0.000000000000000000, 0.000000000000000000 ) ) ;
#26 = DIRECTION ( 'NONE',  ( 0.000000000000000000, 0.000000000000000000, 1.000000000000000000 ) ) ;
#27 = AXIS2_PLACEMENT_3D ( 'NONE', #248, #107, #169 ) ;
#28 = CARTESIAN_POINT ( 'NONE',  ( -8.000000000000000000, 0.000000000000000000, 407.0000000000000000 ) ) ;
#29 = PERSON_AND_ORGANIZATION_ROLE ( 'creator' ) ;
#30 = CYLINDRICAL_SURFACE ( 'NONE', #185, 8.000000000000000000 ) ;
#31 = CC_DESIGN_PERSON_AND_ORGANIZATION_ASSIGNMENT ( #254, #213, ( #103 ) ) ;
#32 = DIRECTION ( 'NONE',  ( 0.000000000000000000, 0.000000000000000000, 1.000000000000000000 ) ) ;
#33 = MANIFOLD_SOLID_BREP ( 'Pøidat vysunutím3', #223 ) ;
#34 = CIRCLE ( 'NONE', #220, 11.00000000000000000 ) ;
#35 = FACE_OUTER_BOUND ( 'NONE', #119, .T. ) ;
#36 = EDGE_LOOP ( 'NONE', ( #95, #159 ) ) ;
#37 = ORIENTED_EDGE ( 'NONE', *, *, #80, .F. ) ;
#38 = CALENDAR_DATE ( 2022, 7, 7 ) ;
#39 = VECTOR ( 'NONE', #194, 1000.000000000000000 ) ;
#40 =( GEOMETRIC_REPRESENTATION_CONTEXT ( 3 ) GLOBAL_UNCERTAINTY_ASSIGNED_CONTEXT ( ( #168 ) ) GLOBAL_UNIT_ASSIGNED_CONTEXT ( ( #249, #75, #53 ) ) REPRESENTATION_CONTEXT ( 'NONE', 'WORKASPACE' ) );
#41 = ORIENTED_EDGE ( 'NONE', *, *, #129, .F. ) ;
#42 = CC_DESIGN_DATE_AND_TIME_ASSIGNMENT ( #219, #142, ( #78 ) ) ;
#43 = APPLICATION_PROTOCOL_DEFINITION ( 'international standard', 'config_control_design', 1994, #112 ) ;
#44 = APPROVAL_PERSON_ORGANIZATION ( #238, #208, #101 ) ;
#45 = CARTESIAN_POINT ( 'NONE',  ( 11.00000000000000000, 1.347111479062088405E-15, 0.000000000000000000 ) ) ;
#46 = COORDINATED_UNIVERSAL_TIME_OFFSET ( 1, 0, .AHEAD. ) ;
#47 = LINE ( 'NONE', #233, #39 ) ;
#48 = PERSON_AND_ORGANIZATION ( #211, #2 ) ;
#49 = DIRECTION ( 'NONE',  ( 1.000000000000000000, 0.000000000000000000, -0.000000000000000000 ) ) ;
#50 = DIRECTION ( 'NONE',  ( 0.000000000000000000, 0.000000000000000000, 1.000000000000000000 ) ) ;
#51 = ADVANCED_FACE ( 'NONE', ( #35 ), #156, .T. ) ;
#52 = DIRECTION ( 'NONE',  ( -0.000000000000000000, -0.000000000000000000, -1.000000000000000000 ) ) ;
#53 =( NAMED_UNIT ( * ) SI_UNIT ( $, .STERADIAN. ) SOLID_ANGLE_UNIT ( ) );
#54 = EDGE_LOOP ( 'NONE', ( #136, #139, #236, #37 ) ) ;
#55 = CIRCLE ( 'NONE', #242, 8.000000000000000000 ) ;
#56 = ORIENTED_EDGE ( 'NONE', *, *, #193, .F. ) ;
#57 = VERTEX_POINT ( 'NONE', #131 ) ;
#58 = DATE_AND_TIME ( #38, #116 ) ;
#59 = EDGE_LOOP ( 'NONE', ( #41, #15 ) ) ;
#60 = APPROVAL_DATE_TIME ( #58, #208 ) ;
#61 = VECTOR ( 'NONE', #253, 1000.000000000000000 ) ;
#62 = VERTEX_POINT ( 'NONE', #228 ) ;
#63 = APPROVAL_PERSON_ORGANIZATION ( #48, #124, #111 ) ;
#64 = COORDINATED_UNIVERSAL_TIME_OFFSET ( 1, 0, .AHEAD. ) ;
#65 = PERSON_AND_ORGANIZATION_ROLE ( 'design_supplier' ) ;
#66 = CC_DESIGN_PERSON_AND_ORGANIZATION_ASSIGNMENT ( #227, #29, ( #222 ) ) ;
#67 = DIRECTION ( 'NONE',  ( 0.000000000000000000, 0.000000000000000000, 1.000000000000000000 ) ) ;
#68 = FACE_OUTER_BOUND ( 'NONE', #36, .T. ) ;
#69 = LOCAL_TIME ( 19, 7, 26.00000000000000000, #46 ) ;
#70 = DATE_AND_TIME ( #167, #23 ) ;
#71 = CARTESIAN_POINT ( 'NONE',  ( 0.000000000000000000, 0.000000000000000000, 7.000000000000000000 ) ) ;
#72 = DIRECTION ( 'NONE',  ( 0.000000000000000000, 0.000000000000000000, 1.000000000000000000 ) ) ;
#73 = CYLINDRICAL_SURFACE ( 'NONE', #243, 11.00000000000000000 ) ;
#74 = DIRECTION ( 'NONE',  ( 0.000000000000000000, 0.000000000000000000, 1.000000000000000000 ) ) ;
#75 =( NAMED_UNIT ( * ) PLANE_ANGLE_UNIT ( ) SI_UNIT ( $, .RADIAN. ) );
#76 = ORIENTED_EDGE ( 'NONE', *, *, #239, .F. ) ;
#77 = ORIENTED_EDGE ( 'NONE', *, *, #102, .T. ) ;
#78 = SECURITY_CLASSIFICATION ( '', '', #18 ) ;
#79 = VERTEX_POINT ( 'NONE', #132 ) ;
#80 = EDGE_CURVE ( 'NONE', #255, #57, #47, .T. ) ;
#81 = EDGE_LOOP ( 'NONE', ( #17, #117, #77, #180 ) ) ;
#82 = COORDINATED_UNIVERSAL_TIME_OFFSET ( 1, 0, .AHEAD. ) ;
#83 = AXIS2_PLACEMENT_3D ( 'NONE', #172, #72, #89 ) ;
#84 = PERSON_AND_ORGANIZATION ( #211, #2 ) ;
#85 = EDGE_CURVE ( 'NONE', #62, #157, #152, .T. ) ;
#86 = DIRECTION ( 'NONE',  ( 1.000000000000000000, 0.000000000000000000, 0.000000000000000000 ) ) ;
#87 = COORDINATED_UNIVERSAL_TIME_OFFSET ( 1, 0, .AHEAD. ) ;
#88 = FACE_OUTER_BOUND ( 'NONE', #121, .T. ) ;
#89 = DIRECTION ( 'NONE',  ( 1.000000000000000000, 0.000000000000000000, 0.000000000000000000 ) ) ;
#90 = CARTESIAN_POINT ( 'NONE',  ( -8.000000000000000000, 0.000000000000000000, 7.000000000000000000 ) ) ;
#91 = DIRECTION ( 'NONE',  ( 1.000000000000000000, 0.000000000000000000, -0.000000000000000000 ) ) ;
#92 = DIRECTION ( 'NONE',  ( 0.000000000000000000, 0.000000000000000000, 1.000000000000000000 ) ) ;
#93 = PERSON_AND_ORGANIZATION_ROLE ( 'design_owner' ) ;
#94 = PRODUCT_DEFINITION_SHAPE ( 'NONE', 'NONE',  #222 ) ;
#95 = ORIENTED_EDGE ( 'NONE', *, *, #181, .T. ) ;
#96 = ORIENTED_EDGE ( 'NONE', *, *, #193, .T. ) ;
#97 = APPLICATION_CONTEXT ( 'configuration controlled 3d designs of mechanical parts and assemblies' ) ;
#98 = CIRCLE ( 'NONE', #16, 8.000000000000000000 ) ;
#99 = ORIENTED_EDGE ( 'NONE', *, *, #181, .F. ) ;
#100 = ORIENTED_EDGE ( 'NONE', *, *, #129, .T. ) ;
#101 = APPROVAL_ROLE ( '' ) ;
#102 = EDGE_CURVE ( 'NONE', #118, #157, #55, .T. ) ;
#103 = PRODUCT_DEFINITION_FORMATION_WITH_SPECIFIED_SOURCE ( 'LIBOVOLNÝ', '', #155, .NOT_KNOWN. ) ;
#104 = CC_DESIGN_APPROVAL ( #124, ( #103 ) ) ;
#105 = CIRCLE ( 'NONE', #83, 11.00000000000000000 ) ;
#106 = CARTESIAN_POINT ( 'NONE',  ( 0.000000000000000000, 0.000000000000000000, 7.000000000000000000 ) ) ;
#107 = DIRECTION ( 'NONE',  ( 0.000000000000000000, 0.000000000000000000, 1.000000000000000000 ) ) ;
#108 = PERSON_AND_ORGANIZATION ( #211, #2 ) ;
#109 = AXIS2_PLACEMENT_3D ( 'NONE', #8, #92, #173 ) ;
#110 = DIRECTION ( 'NONE',  ( 1.000000000000000000, 0.000000000000000000, 0.000000000000000000 ) ) ;
#111 = APPROVAL_ROLE ( '' ) ;
#112 = APPLICATION_CONTEXT ( 'configuration controlled 3d designs of mechanical parts and assemblies' ) ;
#113 = DIRECTION ( 'NONE',  ( -0.000000000000000000, -0.000000000000000000, -1.000000000000000000 ) ) ;
#114 = LINE ( 'NONE', #175, #164 ) ;
#115 = CARTESIAN_POINT ( 'NONE',  ( 0.000000000000000000, 0.000000000000000000, 7.000000000000000000 ) ) ;
#116 = LOCAL_TIME ( 19, 7, 26.00000000000000000, #82 ) ;
#117 = ORIENTED_EDGE ( 'NONE', *, *, #21, .T. ) ;
#118 = VERTEX_POINT ( 'NONE', #153 ) ;
#119 = EDGE_LOOP ( 'NONE', ( #212, #237, #160, #96 ) ) ;
#120 = ADVANCED_FACE ( 'NONE', ( #191 ), #150, .F. ) ;
#121 = EDGE_LOOP ( 'NONE', ( #76, #99, #13, #100 ) ) ;
#122 = SHAPE_DEFINITION_REPRESENTATION ( #94, #123 ) ;
#123 = ADVANCED_BREP_SHAPE_REPRESENTATION ( '3531', ( #33, #140 ), #40 ) ;
#124 = APPROVAL ( #204, 'NEURÈENÝ' ) ;
#125 = CIRCLE ( 'NONE', #205, 11.00000000000000000 ) ;
#126 = DIRECTION ( 'NONE',  ( 1.000000000000000000, 0.000000000000000000, 0.000000000000000000 ) ) ;
#127 = APPROVAL_STATUS ( 'not_yet_approved' ) ;
#128 = CARTESIAN_POINT ( 'NONE',  ( 0.000000000000000000, 0.000000000000000000, 7.000000000000000000 ) ) ;
#129 = EDGE_CURVE ( 'NONE', #57, #177, #34, .T. ) ;
#130 = DIRECTION ( 'NONE',  ( -0.000000000000000000, -0.000000000000000000, -1.000000000000000000 ) ) ;
#131 = CARTESIAN_POINT ( 'NONE',  ( -11.00000000000000000, 0.000000000000000000, 0.000000000000000000 ) ) ;
#132 = CARTESIAN_POINT ( 'NONE',  ( 8.000000000000000000, 9.797174393178825657E-16, 407.0000000000000000 ) ) ;
#133 = CARTESIAN_POINT ( 'NONE',  ( 11.00000000000000000, 1.347111479062088405E-15, 7.000000000000000000 ) ) ;
#134 = CARTESIAN_POINT ( 'NONE',  ( 0.000000000000000000, 0.000000000000000000, 407.0000000000000000 ) ) ;
#135 = CARTESIAN_POINT ( 'NONE',  ( 8.000000000000000000, 9.797174393178825657E-16, 407.0000000000000000 ) ) ;
#136 = ORIENTED_EDGE ( 'NONE', *, *, #178, .F. ) ;
#137 = CYLINDRICAL_SURFACE ( 'NONE', #232, 11.00000000000000000 ) ;
#138 = APPROVAL_DATE_TIME ( #198, #124 ) ;
#139 = ORIENTED_EDGE ( 'NONE', *, *, #239, .T. ) ;
#140 = AXIS2_PLACEMENT_3D ( 'NONE', #234, #67, #146 ) ;
#141 = DIRECTION ( 'NONE',  ( -0.000000000000000000, -0.000000000000000000, -1.000000000000000000 ) ) ;
#142 = DATE_TIME_ROLE ( 'classification_date' ) ;
#143 = PERSON_AND_ORGANIZATION_ROLE ( 'classification_officer' ) ;
#144 = CC_DESIGN_APPROVAL ( #208, ( #78 ) ) ;
#145 = ADVANCED_FACE ( 'NONE', ( #201 ), #9, .T. ) ;
#146 = DIRECTION ( 'NONE',  ( 1.000000000000000000, 0.000000000000000000, 0.000000000000000000 ) ) ;
#147 = AXIS2_PLACEMENT_3D ( 'NONE', #128, #6, #91 ) ;
#148 = ADVANCED_FACE ( 'NONE', ( #231 ), #30, .T. ) ;
#149 = LOCAL_TIME ( 19, 7, 26.00000000000000000, #192 ) ;
#150 = PLANE ( 'NONE',  #1 ) ;
#151 = APPROVAL_DATE_TIME ( #70, #217 ) ;
#152 = LINE ( 'NONE', #28, #20 ) ;
#153 = CARTESIAN_POINT ( 'NONE',  ( 8.000000000000000000, 9.797174393178825657E-16, 7.000000000000000000 ) ) ;
#154 = DIRECTION ( 'NONE',  ( -1.000000000000000000, 0.000000000000000000, 0.000000000000000000 ) ) ;
#155 = PRODUCT ( '3531', '3531', '', ( #10 ) ) ;
#156 = CYLINDRICAL_SURFACE ( 'NONE', #3, 8.000000000000000000 ) ;
#157 = VERTEX_POINT ( 'NONE', #90 ) ;
#158 = PERSON_AND_ORGANIZATION ( #211, #2 ) ;
#159 = ORIENTED_EDGE ( 'NONE', *, *, #178, .T. ) ;
#160 = ORIENTED_EDGE ( 'NONE', *, *, #85, .T. ) ;
#161 = EDGE_CURVE ( 'NONE', #79, #62, #11, .T. ) ;
#162 = CALENDAR_DATE ( 2022, 7, 7 ) ;
#163 = CALENDAR_DATE ( 2022, 7, 7 ) ;
#164 = VECTOR ( 'NONE', #130, 1000.000000000000000 ) ;
#165 = CC_DESIGN_PERSON_AND_ORGANIZATION_ASSIGNMENT ( #108, #93, ( #155 ) ) ;
#166 = DIRECTION ( 'NONE',  ( 0.000000000000000000, 0.000000000000000000, 1.000000000000000000 ) ) ;
#167 = CALENDAR_DATE ( 2022, 7, 7 ) ;
#168 = UNCERTAINTY_MEASURE_WITH_UNIT (LENGTH_MEASURE( 1.000000000000000082E-05 ), #249, 'distance_accuracy_value', 'NONE');
#169 = DIRECTION ( 'NONE',  ( 1.000000000000000000, 0.000000000000000000, 0.000000000000000000 ) ) ;
#170 = CARTESIAN_POINT ( 'NONE',  ( 0.000000000000000000, 0.000000000000000000, 407.0000000000000000 ) ) ;
#171 = CARTESIAN_POINT ( 'NONE',  ( 0.000000000000000000, 0.000000000000000000, 0.000000000000000000 ) ) ;
#172 = CARTESIAN_POINT ( 'NONE',  ( 0.000000000000000000, 0.000000000000000000, 0.000000000000000000 ) ) ;
#173 = DIRECTION ( 'NONE',  ( 1.000000000000000000, 0.000000000000000000, -0.000000000000000000 ) ) ;
#174 = CC_DESIGN_DATE_AND_TIME_ASSIGNMENT ( #7, #230, ( #222 ) ) ;
#175 = CARTESIAN_POINT ( 'NONE',  ( 11.00000000000000000, 1.347111479062088405E-15, 7.000000000000000000 ) ) ;
#176 = CC_DESIGN_APPROVAL ( #217, ( #222 ) ) ;
#177 = VERTEX_POINT ( 'NONE', #45 ) ;
#178 = EDGE_CURVE ( 'NONE', #209, #255, #22, .T. ) ;
#179 = EDGE_LOOP ( 'NONE', ( #240, #252 ) ) ;
#180 = ORIENTED_EDGE ( 'NONE', *, *, #85, .F. ) ;
#181 = EDGE_CURVE ( 'NONE', #255, #209, #125, .T. ) ;
#182 = AXIS2_PLACEMENT_3D ( 'NONE', #170, #50, #25 ) ;
#183 = DESIGN_CONTEXT ( 'detailed design', #112, 'design' ) ;
#184 = ADVANCED_FACE ( 'NONE', ( #88 ), #73, .T. ) ;
#185 = AXIS2_PLACEMENT_3D ( 'NONE', #4, #113, #244 ) ;
#186 = DIRECTION ( 'NONE',  ( 0.000000000000000000, 0.000000000000000000, 1.000000000000000000 ) ) ;
#187 = PERSON_AND_ORGANIZATION ( #211, #2 ) ;
#188 = PRODUCT_RELATED_PRODUCT_CATEGORY ( 'detail', '', ( #155 ) ) ;
#189 = FACE_BOUND ( 'NONE', #241, .T. ) ;
#190 = CALENDAR_DATE ( 2022, 7, 7 ) ;
#191 = FACE_OUTER_BOUND ( 'NONE', #59, .T. ) ;
#192 = COORDINATED_UNIVERSAL_TIME_OFFSET ( 1, 0, .AHEAD. ) ;
#193 = EDGE_CURVE ( 'NONE', #157, #118, #98, .T. ) ;
#194 = DIRECTION ( 'NONE',  ( -0.000000000000000000, -0.000000000000000000, -1.000000000000000000 ) ) ;
#195 = ADVANCED_FACE ( 'NONE', ( #189, #68 ), #226, .T. ) ;
#196 = CARTESIAN_POINT ( 'NONE',  ( 0.000000000000000000, 0.000000000000000000, 407.0000000000000000 ) ) ;
#197 = ORIENTED_EDGE ( 'NONE', *, *, #102, .F. ) ;
#198 = DATE_AND_TIME ( #162, #149 ) ;
#199 = EDGE_CURVE ( 'NONE', #177, #57, #105, .T. ) ;
#200 = DIRECTION ( 'NONE',  ( -0.000000000000000000, -0.000000000000000000, -1.000000000000000000 ) ) ;
#201 = FACE_OUTER_BOUND ( 'NONE', #179, .T. ) ;
#202 = APPLICATION_PROTOCOL_DEFINITION ( 'international standard', 'config_control_design', 1994, #97 ) ;
#203 = CARTESIAN_POINT ( 'NONE',  ( 0.000000000000000000, 0.000000000000000000, 7.000000000000000000 ) ) ;
#204 = APPROVAL_STATUS ( 'not_yet_approved' ) ;
#205 = AXIS2_PLACEMENT_3D ( 'NONE', #71, #32, #247 ) ;
#206 = CARTESIAN_POINT ( 'NONE',  ( 0.000000000000000000, 0.000000000000000000, 0.000000000000000000 ) ) ;
#207 = DIRECTION ( 'NONE',  ( 1.000000000000000000, 0.000000000000000000, 0.000000000000000000 ) ) ;
#208 = APPROVAL ( #216, 'NEURÈENÝ' ) ;
#209 = VERTEX_POINT ( 'NONE', #133 ) ;
#210 = DIRECTION ( 'NONE',  ( -0.000000000000000000, -0.000000000000000000, -1.000000000000000000 ) ) ;
#211 = PERSON ( 'NEURÈENÝ', 'NEURÈENÝ', 'NEURÈENÝ', ('NEURÈENÝ'), ('NEURÈENÝ'), ('NEURÈENÝ') ) ;
#212 = ORIENTED_EDGE ( 'NONE', *, *, #21, .F. ) ;
#213 = PERSON_AND_ORGANIZATION_ROLE ( 'creator' ) ;
#214 = LINE ( 'NONE', #135, #61 ) ;
#215 = AXIS2_PLACEMENT_3D ( 'NONE', #134, #26, #126 ) ;
#216 = APPROVAL_STATUS ( 'not_yet_approved' ) ;
#217 = APPROVAL ( #127, 'NEURÈENÝ' ) ;
#218 = DIRECTION ( 'NONE',  ( -1.000000000000000000, 0.000000000000000000, 0.000000000000000000 ) ) ;
#219 = DATE_AND_TIME ( #163, #225 ) ;
#220 = AXIS2_PLACEMENT_3D ( 'NONE', #206, #245, #207 ) ;
#221 = CC_DESIGN_SECURITY_CLASSIFICATION ( #78, ( #103 ) ) ;
#222 = PRODUCT_DEFINITION ( 'NEZNÁMÝ', '', #103, #183 ) ;
#223 = CLOSED_SHELL ( 'NONE', ( #148, #12, #184, #195, #120, #51, #145 ) ) ;
#224 = CIRCLE ( 'NONE', #182, 8.000000000000000000 ) ;
#225 = LOCAL_TIME ( 19, 7, 26.00000000000000000, #64 ) ;
#226 = PLANE ( 'NONE',  #147 ) ;
#227 = PERSON_AND_ORGANIZATION ( #211, #2 ) ;
#228 = CARTESIAN_POINT ( 'NONE',  ( -8.000000000000000000, 0.000000000000000000, 407.0000000000000000 ) ) ;
#229 = EDGE_CURVE ( 'NONE', #62, #79, #224, .T. ) ;
#230 = DATE_TIME_ROLE ( 'creation_date' ) ;
#231 = FACE_OUTER_BOUND ( 'NONE', #81, .T. ) ;
#232 = AXIS2_PLACEMENT_3D ( 'NONE', #251, #141, #218 ) ;
#233 = CARTESIAN_POINT ( 'NONE',  ( -11.00000000000000000, 0.000000000000000000, 7.000000000000000000 ) ) ;
#234 = CARTESIAN_POINT ( 'NONE',  ( 0.000000000000000000, 0.000000000000000000, 0.000000000000000000 ) ) ;
#235 = CC_DESIGN_PERSON_AND_ORGANIZATION_ASSIGNMENT ( #84, #143, ( #78 ) ) ;
#236 = ORIENTED_EDGE ( 'NONE', *, *, #199, .T. ) ;
#237 = ORIENTED_EDGE ( 'NONE', *, *, #229, .F. ) ;
#238 = PERSON_AND_ORGANIZATION ( #211, #2 ) ;
#239 = EDGE_CURVE ( 'NONE', #209, #177, #114, .T. ) ;
#240 = ORIENTED_EDGE ( 'NONE', *, *, #229, .T. ) ;
#241 = EDGE_LOOP ( 'NONE', ( #56, #197 ) ) ;
#242 = AXIS2_PLACEMENT_3D ( 'NONE', #203, #74, #110 ) ;
#243 = AXIS2_PLACEMENT_3D ( 'NONE', #115, #200, #24 ) ;
#244 = DIRECTION ( 'NONE',  ( -1.000000000000000000, 0.000000000000000000, 0.000000000000000000 ) ) ;
#245 = DIRECTION ( 'NONE',  ( 0.000000000000000000, 0.000000000000000000, 1.000000000000000000 ) ) ;
#246 = CARTESIAN_POINT ( 'NONE',  ( -11.00000000000000000, 0.000000000000000000, 7.000000000000000000 ) ) ;
#247 = DIRECTION ( 'NONE',  ( 1.000000000000000000, 0.000000000000000000, 0.000000000000000000 ) ) ;
#248 = CARTESIAN_POINT ( 'NONE',  ( 0.000000000000000000, 0.000000000000000000, 7.000000000000000000 ) ) ;
#249 =( LENGTH_UNIT ( ) NAMED_UNIT ( * ) SI_UNIT ( .MILLI., .METRE. ) );
#250 = APPROVAL_PERSON_ORGANIZATION ( #187, #217, #5 ) ;
#251 = CARTESIAN_POINT ( 'NONE',  ( 0.000000000000000000, 0.000000000000000000, 7.000000000000000000 ) ) ;
#252 = ORIENTED_EDGE ( 'NONE', *, *, #161, .T. ) ;
#253 = DIRECTION ( 'NONE',  ( -0.000000000000000000, -0.000000000000000000, -1.000000000000000000 ) ) ;
#254 = PERSON_AND_ORGANIZATION ( #211, #2 ) ;
#255 = VERTEX_POINT ( 'NONE', #246 ) ;
ENDSEC;
END-ISO-10303-21;
