ISO-10303-21;
HEADER;
FILE_DESCRIPTION (( 'STEP AP203' ),
    '1' );
FILE_NAME ('2c59.STEP',
    '2022-07-07T17:04:35',
    ( '' ),
    ( '' ),
    'SwSTEP 2.0',
    'SolidWorks 2019',
    '' );
FILE_SCHEMA (( 'CONFIG_CONTROL_DESIGN' ));
ENDSEC;

DATA;
#1 = DIRECTION ( 'NONE',  ( 1.000000000000000000, 0.000000000000000000, 0.000000000000000000 ) ) ;
#2 = EDGE_CURVE ( 'NONE', #255, #6, #218, .T. ) ;
#3 = ORIENTED_EDGE ( 'NONE', *, *, #53, .T. ) ;
#4 = CIRCLE ( 'NONE', #197, 12.00000000000000178 ) ;
#5 = LOCAL_TIME ( 19, 4, 35.00000000000000000, #84 ) ;
#6 = VERTEX_POINT ( 'NONE', #85 ) ;
#7 = LOCAL_TIME ( 19, 4, 35.00000000000000000, #120 ) ;
#8 = EDGE_CURVE ( 'NONE', #49, #6, #147, .T. ) ;
#9 = EDGE_LOOP ( 'NONE', ( #251, #210 ) ) ;
#10 = CC_DESIGN_DATE_AND_TIME_ASSIGNMENT ( #136, #34, ( #214 ) ) ;
#11 = FACE_OUTER_BOUND ( 'NONE', #236, .T. ) ;
#12 = DIRECTION ( 'NONE',  ( 1.000000000000000000, 0.000000000000000000, 0.000000000000000000 ) ) ;
#13 = PLANE ( 'NONE',  #96 ) ;
#14 = APPROVAL_PERSON_ORGANIZATION ( #208, #149, #15 ) ;
#15 = APPROVAL_ROLE ( '' ) ;
#16 = CYLINDRICAL_SURFACE ( 'NONE', #37, 9.000000000000001776 ) ;
#17 = CARTESIAN_POINT ( 'NONE',  ( 0.000000000000000000, 0.000000000000000000, 507.0000000000000000 ) ) ;
#18 = CALENDAR_DATE ( 2022, 7, 7 ) ;
#19 = AXIS2_PLACEMENT_3D ( 'NONE', #17, #81, #74 ) ;
#20 = DATE_AND_TIME ( #174, #5 ) ;
#21 = EDGE_LOOP ( 'NONE', ( #50, #105, #22, #179 ) ) ;
#22 = ORIENTED_EDGE ( 'NONE', *, *, #51, .T. ) ;
#23 = VERTEX_POINT ( 'NONE', #127 ) ;
#24 = PLANE ( 'NONE',  #253 ) ;
#25 = UNCERTAINTY_MEASURE_WITH_UNIT (LENGTH_MEASURE( 1.000000000000000082E-05 ), #137, 'distance_accuracy_value', 'NONE');
#26 = ORIENTED_EDGE ( 'NONE', *, *, #188, .T. ) ;
#27 = DIRECTION ( 'NONE',  ( 0.000000000000000000, 0.000000000000000000, 1.000000000000000000 ) ) ;
#28 = CYLINDRICAL_SURFACE ( 'NONE', #36, 9.000000000000001776 ) ;
#29 = LOCAL_TIME ( 19, 4, 35.00000000000000000, #78 ) ;
#30 = ADVANCED_FACE ( 'NONE', ( #201 ), #24, .T. ) ;
#31 = LINE ( 'NONE', #187, #167 ) ;
#32 = MECHANICAL_CONTEXT ( 'NONE', #114, 'mechanical' ) ;
#33 = CARTESIAN_POINT ( 'NONE',  ( 9.000000000000001776, 1.102182119232617911E-15, 7.000000000000000000 ) ) ;
#34 = DATE_TIME_ROLE ( 'creation_date' ) ;
#35 = DIRECTION ( 'NONE',  ( 1.000000000000000000, 0.000000000000000000, 0.000000000000000000 ) ) ;
#36 = AXIS2_PLACEMENT_3D ( 'NONE', #98, #191, #169 ) ;
#37 = AXIS2_PLACEMENT_3D ( 'NONE', #150, #139, #91 ) ;
#38 = PERSON_AND_ORGANIZATION ( #221, #247 ) ;
#39 = FACE_OUTER_BOUND ( 'NONE', #47, .T. ) ;
#40 = COORDINATED_UNIVERSAL_TIME_OFFSET ( 1, 0, .AHEAD. ) ;
#41 = APPROVAL_STATUS ( 'not_yet_approved' ) ;
#42 = AXIS2_PLACEMENT_3D ( 'NONE', #106, #89, #1 ) ;
#43 = CC_DESIGN_APPROVAL ( #149, ( #133 ) ) ;
#44 = APPROVAL_DATE_TIME ( #20, #230 ) ;
#45 = CARTESIAN_POINT ( 'NONE',  ( -9.000000000000001776, 0.000000000000000000, 507.0000000000000000 ) ) ;
#46 = CYLINDRICAL_SURFACE ( 'NONE', #132, 12.00000000000000178 ) ;
#47 = EDGE_LOOP ( 'NONE', ( #158, #180, #52, #199 ) ) ;
#48 = CIRCLE ( 'NONE', #86, 12.00000000000000178 ) ;
#49 = VERTEX_POINT ( 'NONE', #196 ) ;
#50 = ORIENTED_EDGE ( 'NONE', *, *, #83, .F. ) ;
#51 = EDGE_CURVE ( 'NONE', #143, #164, #145, .T. ) ;
#52 = ORIENTED_EDGE ( 'NONE', *, *, #2, .T. ) ;
#53 = EDGE_CURVE ( 'NONE', #23, #164, #241, .T. ) ;
#54 = DIRECTION ( 'NONE',  ( 1.000000000000000000, 0.000000000000000000, 0.000000000000000000 ) ) ;
#55 = DIRECTION ( 'NONE',  ( 1.000000000000000000, 0.000000000000000000, 0.000000000000000000 ) ) ;
#56 = DIRECTION ( 'NONE',  ( -0.000000000000000000, -0.000000000000000000, -1.000000000000000000 ) ) ;
#57 = CALENDAR_DATE ( 2022, 7, 7 ) ;
#58 = ADVANCED_FACE ( 'NONE', ( #217 ), #46, .T. ) ;
#59 = DIRECTION ( 'NONE',  ( 0.000000000000000000, 0.000000000000000000, 1.000000000000000000 ) ) ;
#60 = APPLICATION_PROTOCOL_DEFINITION ( 'international standard', 'config_control_design', 1994, #129 ) ;
#61 = CARTESIAN_POINT ( 'NONE',  ( 0.000000000000000000, 0.000000000000000000, 7.000000000000000000 ) ) ;
#62 = CIRCLE ( 'NONE', #19, 9.000000000000001776 ) ;
#63 =( NAMED_UNIT ( * ) PLANE_ANGLE_UNIT ( ) SI_UNIT ( $, .RADIAN. ) );
#64 = ADVANCED_FACE ( 'NONE', ( #202 ), #28, .T. ) ;
#65 = VECTOR ( 'NONE', #222, 1000.000000000000000 ) ;
#66 = AXIS2_PLACEMENT_3D ( 'NONE', #225, #94, #55 ) ;
#67 = ORIENTED_EDGE ( 'NONE', *, *, #108, .F. ) ;
#68 = CARTESIAN_POINT ( 'NONE',  ( 0.000000000000000000, 0.000000000000000000, 507.0000000000000000 ) ) ;
#69 = ORIENTED_EDGE ( 'NONE', *, *, #103, .F. ) ;
#70 = LOCAL_TIME ( 19, 4, 35.00000000000000000, #40 ) ;
#71 = ADVANCED_FACE ( 'NONE', ( #117, #250 ), #121, .T. ) ;
#72 = DIRECTION ( 'NONE',  ( 0.000000000000000000, 0.000000000000000000, 1.000000000000000000 ) ) ;
#73 = EDGE_LOOP ( 'NONE', ( #159, #177, #146, #237 ) ) ;
#74 = DIRECTION ( 'NONE',  ( 1.000000000000000000, 0.000000000000000000, 0.000000000000000000 ) ) ;
#75 = CARTESIAN_POINT ( 'NONE',  ( 0.000000000000000000, 0.000000000000000000, 7.000000000000000000 ) ) ;
#76 = CC_DESIGN_PERSON_AND_ORGANIZATION_ASSIGNMENT ( #38, #193, ( #111 ) ) ;
#77 = CC_DESIGN_APPROVAL ( #230, ( #111 ) ) ;
#78 = COORDINATED_UNIVERSAL_TIME_OFFSET ( 1, 0, .AHEAD. ) ;
#79 = CARTESIAN_POINT ( 'NONE',  ( 0.000000000000000000, 0.000000000000000000, 0.000000000000000000 ) ) ;
#80 = PERSON_AND_ORGANIZATION_ROLE ( 'design_supplier' ) ;
#81 = DIRECTION ( 'NONE',  ( 0.000000000000000000, 0.000000000000000000, 1.000000000000000000 ) ) ;
#82 = PERSON_AND_ORGANIZATION ( #221, #247 ) ;
#83 = EDGE_CURVE ( 'NONE', #128, #23, #171, .T. ) ;
#84 = COORDINATED_UNIVERSAL_TIME_OFFSET ( 1, 0, .AHEAD. ) ;
#85 = CARTESIAN_POINT ( 'NONE',  ( -9.000000000000001776, 0.000000000000000000, 7.000000000000000000 ) ) ;
#86 = AXIS2_PLACEMENT_3D ( 'NONE', #226, #243, #229 ) ;
#87 = ORIENTED_EDGE ( 'NONE', *, *, #93, .T. ) ;
#88 = EDGE_LOOP ( 'NONE', ( #67, #183 ) ) ;
#89 = DIRECTION ( 'NONE',  ( 0.000000000000000000, 0.000000000000000000, 1.000000000000000000 ) ) ;
#90 = AXIS2_PLACEMENT_3D ( 'NONE', #61, #151, #92 ) ;
#91 = DIRECTION ( 'NONE',  ( -1.000000000000000000, 0.000000000000000000, 0.000000000000000000 ) ) ;
#92 = DIRECTION ( 'NONE',  ( -1.000000000000000000, 0.000000000000000000, 0.000000000000000000 ) ) ;
#93 = EDGE_CURVE ( 'NONE', #49, #216, #62, .T. ) ;
#94 = DIRECTION ( 'NONE',  ( 0.000000000000000000, 0.000000000000000000, 1.000000000000000000 ) ) ;
#95 = DIRECTION ( 'NONE',  ( 0.000000000000000000, 0.000000000000000000, 1.000000000000000000 ) ) ;
#96 = AXIS2_PLACEMENT_3D ( 'NONE', #79, #95, #246 ) ;
#97 = APPROVAL_DATE_TIME ( #168, #149 ) ;
#98 = CARTESIAN_POINT ( 'NONE',  ( 0.000000000000000000, 0.000000000000000000, 507.0000000000000000 ) ) ;
#99 = APPLICATION_PROTOCOL_DEFINITION ( 'international standard', 'config_control_design', 1994, #114 ) ;
#100 = CARTESIAN_POINT ( 'NONE',  ( 12.00000000000000178, 1.469576158976824144E-15, 7.000000000000000000 ) ) ;
#101 = PERSON_AND_ORGANIZATION ( #221, #247 ) ;
#102 = AXIS2_PLACEMENT_3D ( 'NONE', #207, #59, #113 ) ;
#103 = EDGE_CURVE ( 'NONE', #23, #128, #4, .T. ) ;
#104 = ORIENTED_EDGE ( 'NONE', *, *, #51, .F. ) ;
#105 = ORIENTED_EDGE ( 'NONE', *, *, #244, .T. ) ;
#106 = CARTESIAN_POINT ( 'NONE',  ( 0.000000000000000000, 0.000000000000000000, 0.000000000000000000 ) ) ;
#107 = DIRECTION ( 'NONE',  ( -0.000000000000000000, -0.000000000000000000, -1.000000000000000000 ) ) ;
#108 = EDGE_CURVE ( 'NONE', #6, #255, #231, .T. ) ;
#109 = DIRECTION ( 'NONE',  ( 1.000000000000000000, 0.000000000000000000, -0.000000000000000000 ) ) ;
#110 = ORIENTED_EDGE ( 'NONE', *, *, #244, .F. ) ;
#111 = SECURITY_CLASSIFICATION ( '', '', #138 ) ;
#112 = AXIS2_PLACEMENT_3D ( 'NONE', #185, #162, #54 ) ;
#113 = DIRECTION ( 'NONE',  ( 1.000000000000000000, 0.000000000000000000, 0.000000000000000000 ) ) ;
#114 = APPLICATION_CONTEXT ( 'configuration controlled 3d designs of mechanical parts and assemblies' ) ;
#115 = CARTESIAN_POINT ( 'NONE',  ( 9.000000000000001776, 1.102182119232617911E-15, 507.0000000000000000 ) ) ;
#116 = APPROVAL_ROLE ( '' ) ;
#117 = FACE_BOUND ( 'NONE', #88, .T. ) ;
#118 = APPROVAL_STATUS ( 'not_yet_approved' ) ;
#119 = CARTESIAN_POINT ( 'NONE',  ( 0.000000000000000000, 0.000000000000000000, 7.000000000000000000 ) ) ;
#120 = COORDINATED_UNIVERSAL_TIME_OFFSET ( 1, 0, .AHEAD. ) ;
#121 = PLANE ( 'NONE',  #242 ) ;
#122 = APPROVAL_DATE_TIME ( #227, #192 ) ;
#123 = APPROVAL_PERSON_ORGANIZATION ( #170, #192, #116 ) ;
#124 =( GEOMETRIC_REPRESENTATION_CONTEXT ( 3 ) GLOBAL_UNCERTAINTY_ASSIGNED_CONTEXT ( ( #25 ) ) GLOBAL_UNIT_ASSIGNED_CONTEXT ( ( #137, #63, #228 ) ) REPRESENTATION_CONTEXT ( 'NONE', 'WORKASPACE' ) );
#125 = CC_DESIGN_PERSON_AND_ORGANIZATION_ASSIGNMENT ( #245, #189, ( #214 ) ) ;
#126 = DIRECTION ( 'NONE',  ( -0.000000000000000000, -0.000000000000000000, -1.000000000000000000 ) ) ;
#127 = CARTESIAN_POINT ( 'NONE',  ( -12.00000000000000178, 0.000000000000000000, 7.000000000000000000 ) ) ;
#128 = VERTEX_POINT ( 'NONE', #100 ) ;
#129 = APPLICATION_CONTEXT ( 'configuration controlled 3d designs of mechanical parts and assemblies' ) ;
#130 = EDGE_LOOP ( 'NONE', ( #87, #175 ) ) ;
#131 = CARTESIAN_POINT ( 'NONE',  ( 0.000000000000000000, 0.000000000000000000, 7.000000000000000000 ) ) ;
#132 = AXIS2_PLACEMENT_3D ( 'NONE', #131, #107, #198 ) ;
#133 = PRODUCT_DEFINITION_FORMATION_WITH_SPECIFIED_SOURCE ( 'LIBOVOLNÝ', '', #153, .NOT_KNOWN. ) ;
#134 = CYLINDRICAL_SURFACE ( 'NONE', #90, 12.00000000000000178 ) ;
#135 = CARTESIAN_POINT ( 'NONE',  ( 9.000000000000001776, 1.102182119232617911E-15, 507.0000000000000000 ) ) ;
#136 = DATE_AND_TIME ( #57, #235 ) ;
#137 =( LENGTH_UNIT ( ) NAMED_UNIT ( * ) SI_UNIT ( .MILLI., .METRE. ) );
#138 = SECURITY_CLASSIFICATION_LEVEL ( 'unclassified' ) ;
#139 = DIRECTION ( 'NONE',  ( -0.000000000000000000, -0.000000000000000000, -1.000000000000000000 ) ) ;
#140 = AXIS2_PLACEMENT_3D ( 'NONE', #75, #213, #35 ) ;
#141 = COORDINATED_UNIVERSAL_TIME_OFFSET ( 1, 0, .AHEAD. ) ;
#142 = CC_DESIGN_APPROVAL ( #192, ( #214 ) ) ;
#143 = VERTEX_POINT ( 'NONE', #190 ) ;
#144 = CARTESIAN_POINT ( 'NONE',  ( -12.00000000000000178, 0.000000000000000000, 7.000000000000000000 ) ) ;
#145 = CIRCLE ( 'NONE', #42, 12.00000000000000178 ) ;
#146 = ORIENTED_EDGE ( 'NONE', *, *, #8, .T. ) ;
#147 = LINE ( 'NONE', #45, #203 ) ;
#148 = PRODUCT_RELATED_PRODUCT_CATEGORY ( 'detail', '', ( #153 ) ) ;
#149 = APPROVAL ( #118, 'NEURÈENÝ' ) ;
#150 = CARTESIAN_POINT ( 'NONE',  ( 0.000000000000000000, 0.000000000000000000, 507.0000000000000000 ) ) ;
#151 = DIRECTION ( 'NONE',  ( -0.000000000000000000, -0.000000000000000000, -1.000000000000000000 ) ) ;
#152 = CALENDAR_DATE ( 2022, 7, 7 ) ;
#153 = PRODUCT ( '2c59', '2c59', '', ( #32 ) ) ;
#154 = PERSON_AND_ORGANIZATION_ROLE ( 'design_owner' ) ;
#155 = CARTESIAN_POINT ( 'NONE',  ( -12.00000000000000178, 0.000000000000000000, 0.000000000000000000 ) ) ;
#156 = DATE_AND_TIME ( #18, #7 ) ;
#157 = DIRECTION ( 'NONE',  ( 1.000000000000000000, 0.000000000000000000, 0.000000000000000000 ) ) ;
#158 = ORIENTED_EDGE ( 'NONE', *, *, #200, .F. ) ;
#159 = ORIENTED_EDGE ( 'NONE', *, *, #238, .F. ) ;
#160 = EDGE_LOOP ( 'NONE', ( #239, #104 ) ) ;
#161 = CC_DESIGN_PERSON_AND_ORGANIZATION_ASSIGNMENT ( #205, #154, ( #153 ) ) ;
#162 = DIRECTION ( 'NONE',  ( 0.000000000000000000, 0.000000000000000000, 1.000000000000000000 ) ) ;
#163 = FACE_OUTER_BOUND ( 'NONE', #160, .T. ) ;
#164 = VERTEX_POINT ( 'NONE', #155 ) ;
#165 = AXIS2_PLACEMENT_3D ( 'NONE', #220, #72, #157 ) ;
#166 = DIRECTION ( 'NONE',  ( 0.000000000000000000, 0.000000000000000000, 1.000000000000000000 ) ) ;
#167 = VECTOR ( 'NONE', #56, 1000.000000000000000 ) ;
#168 = DATE_AND_TIME ( #215, #70 ) ;
#169 = DIRECTION ( 'NONE',  ( -1.000000000000000000, 0.000000000000000000, 0.000000000000000000 ) ) ;
#170 = PERSON_AND_ORGANIZATION ( #221, #247 ) ;
#171 = CIRCLE ( 'NONE', #140, 12.00000000000000178 ) ;
#172 = CC_DESIGN_DATE_AND_TIME_ASSIGNMENT ( #156, #232, ( #111 ) ) ;
#173 = ADVANCED_BREP_SHAPE_REPRESENTATION ( '2c59', ( #195, #66 ), #124 ) ;
#174 = CALENDAR_DATE ( 2022, 7, 7 ) ;
#175 = ORIENTED_EDGE ( 'NONE', *, *, #200, .T. ) ;
#176 = VECTOR ( 'NONE', #204, 1000.000000000000000 ) ;
#177 = ORIENTED_EDGE ( 'NONE', *, *, #93, .F. ) ;
#178 = DESIGN_CONTEXT ( 'detailed design', #129, 'design' ) ;
#179 = ORIENTED_EDGE ( 'NONE', *, *, #53, .F. ) ;
#180 = ORIENTED_EDGE ( 'NONE', *, *, #238, .T. ) ;
#181 = PRODUCT_DEFINITION_SHAPE ( 'NONE', 'NONE',  #214 ) ;
#182 = APPROVAL_PERSON_ORGANIZATION ( #101, #230, #194 ) ;
#183 = ORIENTED_EDGE ( 'NONE', *, *, #2, .F. ) ;
#184 = CC_DESIGN_PERSON_AND_ORGANIZATION_ASSIGNMENT ( #249, #212, ( #133 ) ) ;
#185 = CARTESIAN_POINT ( 'NONE',  ( 0.000000000000000000, 0.000000000000000000, 7.000000000000000000 ) ) ;
#186 = DIRECTION ( 'NONE',  ( 1.000000000000000000, 0.000000000000000000, -0.000000000000000000 ) ) ;
#187 = CARTESIAN_POINT ( 'NONE',  ( 12.00000000000000178, 1.469576158976824144E-15, 7.000000000000000000 ) ) ;
#188 = EDGE_CURVE ( 'NONE', #164, #143, #48, .T. ) ;
#189 = PERSON_AND_ORGANIZATION_ROLE ( 'creator' ) ;
#190 = CARTESIAN_POINT ( 'NONE',  ( 12.00000000000000178, 1.469576158976824144E-15, 0.000000000000000000 ) ) ;
#191 = DIRECTION ( 'NONE',  ( -0.000000000000000000, -0.000000000000000000, -1.000000000000000000 ) ) ;
#192 = APPROVAL ( #252, 'NEURÈENÝ' ) ;
#193 = PERSON_AND_ORGANIZATION_ROLE ( 'classification_officer' ) ;
#194 = APPROVAL_ROLE ( '' ) ;
#195 = MANIFOLD_SOLID_BREP ( 'Pøidat vysunutím3', #211 ) ;
#196 = CARTESIAN_POINT ( 'NONE',  ( -9.000000000000001776, 0.000000000000000000, 507.0000000000000000 ) ) ;
#197 = AXIS2_PLACEMENT_3D ( 'NONE', #119, #248, #12 ) ;
#198 = DIRECTION ( 'NONE',  ( -1.000000000000000000, 0.000000000000000000, 0.000000000000000000 ) ) ;
#199 = ORIENTED_EDGE ( 'NONE', *, *, #8, .F. ) ;
#200 = EDGE_CURVE ( 'NONE', #216, #49, #224, .T. ) ;
#201 = FACE_OUTER_BOUND ( 'NONE', #130, .T. ) ;
#202 = FACE_OUTER_BOUND ( 'NONE', #73, .T. ) ;
#203 = VECTOR ( 'NONE', #126, 1000.000000000000000 ) ;
#204 = DIRECTION ( 'NONE',  ( -0.000000000000000000, -0.000000000000000000, -1.000000000000000000 ) ) ;
#205 = PERSON_AND_ORGANIZATION ( #221, #247 ) ;
#206 = ADVANCED_FACE ( 'NONE', ( #11 ), #134, .T. ) ;
#207 = CARTESIAN_POINT ( 'NONE',  ( 0.000000000000000000, 0.000000000000000000, 507.0000000000000000 ) ) ;
#208 = PERSON_AND_ORGANIZATION ( #221, #247 ) ;
#209 = CARTESIAN_POINT ( 'NONE',  ( 0.000000000000000000, 0.000000000000000000, 7.000000000000000000 ) ) ;
#210 = ORIENTED_EDGE ( 'NONE', *, *, #83, .T. ) ;
#211 = CLOSED_SHELL ( 'NONE', ( #234, #58, #206, #71, #254, #64, #30 ) ) ;
#212 = PERSON_AND_ORGANIZATION_ROLE ( 'creator' ) ;
#213 = DIRECTION ( 'NONE',  ( 0.000000000000000000, 0.000000000000000000, 1.000000000000000000 ) ) ;
#214 = PRODUCT_DEFINITION ( 'NEZNÁMÝ', '', #133, #178 ) ;
#215 = CALENDAR_DATE ( 2022, 7, 7 ) ;
#216 = VERTEX_POINT ( 'NONE', #135 ) ;
#217 = FACE_OUTER_BOUND ( 'NONE', #21, .T. ) ;
#218 = CIRCLE ( 'NONE', #165, 9.000000000000001776 ) ;
#219 = CC_DESIGN_PERSON_AND_ORGANIZATION_ASSIGNMENT ( #82, #80, ( #133 ) ) ;
#220 = CARTESIAN_POINT ( 'NONE',  ( 0.000000000000000000, 0.000000000000000000, 7.000000000000000000 ) ) ;
#221 = PERSON ( 'NEURÈENÝ', 'NEURÈENÝ', 'NEURÈENÝ', ('NEURÈENÝ'), ('NEURÈENÝ'), ('NEURÈENÝ') ) ;
#222 = DIRECTION ( 'NONE',  ( -0.000000000000000000, -0.000000000000000000, -1.000000000000000000 ) ) ;
#223 = LINE ( 'NONE', #115, #176 ) ;
#224 = CIRCLE ( 'NONE', #102, 9.000000000000001776 ) ;
#225 = CARTESIAN_POINT ( 'NONE',  ( 0.000000000000000000, 0.000000000000000000, 0.000000000000000000 ) ) ;
#226 = CARTESIAN_POINT ( 'NONE',  ( 0.000000000000000000, 0.000000000000000000, 0.000000000000000000 ) ) ;
#227 = DATE_AND_TIME ( #152, #29 ) ;
#228 =( NAMED_UNIT ( * ) SI_UNIT ( $, .STERADIAN. ) SOLID_ANGLE_UNIT ( ) );
#229 = DIRECTION ( 'NONE',  ( 1.000000000000000000, 0.000000000000000000, 0.000000000000000000 ) ) ;
#230 = APPROVAL ( #41, 'NEURÈENÝ' ) ;
#231 = CIRCLE ( 'NONE', #112, 9.000000000000001776 ) ;
#232 = DATE_TIME_ROLE ( 'classification_date' ) ;
#233 = SHAPE_DEFINITION_REPRESENTATION ( #181, #173 ) ;
#234 = ADVANCED_FACE ( 'NONE', ( #39 ), #16, .T. ) ;
#235 = LOCAL_TIME ( 19, 4, 35.00000000000000000, #141 ) ;
#236 = EDGE_LOOP ( 'NONE', ( #110, #69, #3, #26 ) ) ;
#237 = ORIENTED_EDGE ( 'NONE', *, *, #108, .T. ) ;
#238 = EDGE_CURVE ( 'NONE', #216, #255, #223, .T. ) ;
#239 = ORIENTED_EDGE ( 'NONE', *, *, #188, .F. ) ;
#240 = CC_DESIGN_SECURITY_CLASSIFICATION ( #111, ( #133 ) ) ;
#241 = LINE ( 'NONE', #144, #65 ) ;
#242 = AXIS2_PLACEMENT_3D ( 'NONE', #209, #166, #186 ) ;
#243 = DIRECTION ( 'NONE',  ( 0.000000000000000000, 0.000000000000000000, 1.000000000000000000 ) ) ;
#244 = EDGE_CURVE ( 'NONE', #128, #143, #31, .T. ) ;
#245 = PERSON_AND_ORGANIZATION ( #221, #247 ) ;
#246 = DIRECTION ( 'NONE',  ( 1.000000000000000000, 0.000000000000000000, -0.000000000000000000 ) ) ;
#247 = ORGANIZATION ( 'NEURÈENÝ', 'NEURÈENÝ', '' ) ;
#248 = DIRECTION ( 'NONE',  ( 0.000000000000000000, 0.000000000000000000, 1.000000000000000000 ) ) ;
#249 = PERSON_AND_ORGANIZATION ( #221, #247 ) ;
#250 = FACE_OUTER_BOUND ( 'NONE', #9, .T. ) ;
#251 = ORIENTED_EDGE ( 'NONE', *, *, #103, .T. ) ;
#252 = APPROVAL_STATUS ( 'not_yet_approved' ) ;
#253 = AXIS2_PLACEMENT_3D ( 'NONE', #68, #27, #109 ) ;
#254 = ADVANCED_FACE ( 'NONE', ( #163 ), #13, .F. ) ;
#255 = VERTEX_POINT ( 'NONE', #33 ) ;
ENDSEC;
END-ISO-10303-21;
