ISO-10303-21;
HEADER;
FILE_DESCRIPTION (( 'STEP AP203' ),
    '1' );
FILE_NAME ('a4e8.STEP',
    '2022-07-07T17:33:36',
    ( '' ),
    ( '' ),
    'SwSTEP 2.0',
    'SolidWorks 2019',
    '' );
FILE_SCHEMA (( 'CONFIG_CONTROL_DESIGN' ));
ENDSEC;

DATA;
#1 = APPLICATION_CONTEXT ( 'configuration controlled 3d designs of mechanical parts and assemblies' ) ;
#2 = DIRECTION ( 'NONE',  ( -0.000000000000000000, -0.000000000000000000, -1.000000000000000000 ) ) ;
#3 = DIRECTION ( 'NONE',  ( 1.000000000000000000, 0.000000000000000000, 0.000000000000000000 ) ) ;
#4 = AXIS2_PLACEMENT_3D ( 'NONE', #49, #9, #155 ) ;
#5 = DIRECTION ( 'NONE',  ( 0.000000000000000000, 0.000000000000000000, 1.000000000000000000 ) ) ;
#6 = CARTESIAN_POINT ( 'NONE',  ( 0.000000000000000000, 0.000000000000000000, 0.000000000000000000 ) ) ;
#7 = ORIENTED_EDGE ( 'NONE', *, *, #200, .F. ) ;
#8 = COORDINATED_UNIVERSAL_TIME_OFFSET ( 1, 0, .AHEAD. ) ;
#9 = DIRECTION ( 'NONE',  ( 0.000000000000000000, 0.000000000000000000, 1.000000000000000000 ) ) ;
#10 = APPROVAL_DATE_TIME ( #33, #38 ) ;
#11 = ADVANCED_FACE ( 'NONE', ( #131 ), #30, .T. ) ;
#12 = DIRECTION ( 'NONE',  ( 0.000000000000000000, 0.000000000000000000, 1.000000000000000000 ) ) ;
#13 = AXIS2_PLACEMENT_3D ( 'NONE', #78, #79, #163 ) ;
#14 = SHAPE_DEFINITION_REPRESENTATION ( #80, #39 ) ;
#15 = DIRECTION ( 'NONE',  ( 1.000000000000000000, 0.000000000000000000, 0.000000000000000000 ) ) ;
#16 = PERSON_AND_ORGANIZATION ( #73, #182 ) ;
#17 = ADVANCED_FACE ( 'NONE', ( #246 ), #70, .T. ) ;
#18 = APPLICATION_CONTEXT ( 'configuration controlled 3d designs of mechanical parts and assemblies' ) ;
#19 = ORIENTED_EDGE ( 'NONE', *, *, #201, .T. ) ;
#20 = CIRCLE ( 'NONE', #60, 7.000000000000000000 ) ;
#21 = LOCAL_TIME ( 19, 33, 36.00000000000000000, #176 ) ;
#22 = DIRECTION ( 'NONE',  ( -0.000000000000000000, -0.000000000000000000, -1.000000000000000000 ) ) ;
#23 = LOCAL_TIME ( 19, 33, 36.00000000000000000, #243 ) ;
#24 = FACE_OUTER_BOUND ( 'NONE', #118, .T. ) ;
#25 =( LENGTH_UNIT ( ) NAMED_UNIT ( * ) SI_UNIT ( .MILLI., .METRE. ) );
#26 =( NAMED_UNIT ( * ) SI_UNIT ( $, .STERADIAN. ) SOLID_ANGLE_UNIT ( ) );
#27 = ORIENTED_EDGE ( 'NONE', *, *, #242, .F. ) ;
#28 = DIRECTION ( 'NONE',  ( 0.000000000000000000, 0.000000000000000000, 1.000000000000000000 ) ) ;
#29 = PERSON_AND_ORGANIZATION ( #73, #182 ) ;
#30 = CYLINDRICAL_SURFACE ( 'NONE', #160, 4.000000000000000000 ) ;
#31 = APPLICATION_PROTOCOL_DEFINITION ( 'international standard', 'config_control_design', 1994, #1 ) ;
#32 = CARTESIAN_POINT ( 'NONE',  ( 7.000000000000000000, 8.572527594031473190E-16, 5.000000000000000000 ) ) ;
#33 = DATE_AND_TIME ( #129, #58 ) ;
#34 = CARTESIAN_POINT ( 'NONE',  ( -4.000000000000000000, 0.000000000000000000, 130.0000000000000000 ) ) ;
#35 = CIRCLE ( 'NONE', #13, 4.000000000000000000 ) ;
#36 = UNCERTAINTY_MEASURE_WITH_UNIT (LENGTH_MEASURE( 1.000000000000000082E-05 ), #25, 'distance_accuracy_value', 'NONE');
#37 = ORIENTED_EDGE ( 'NONE', *, *, #242, .T. ) ;
#38 = APPROVAL ( #170, 'NEURÈENÝ' ) ;
#39 = ADVANCED_BREP_SHAPE_REPRESENTATION ( 'a4e8', ( #63, #199 ), #76 ) ;
#40 = FACE_OUTER_BOUND ( 'NONE', #251, .T. ) ;
#41 = CYLINDRICAL_SURFACE ( 'NONE', #125, 4.000000000000000000 ) ;
#42 = CC_DESIGN_APPROVAL ( #38, ( #203 ) ) ;
#43 = DIRECTION ( 'NONE',  ( 0.000000000000000000, 0.000000000000000000, 1.000000000000000000 ) ) ;
#44 = ADVANCED_FACE ( 'NONE', ( #108, #83 ), #151, .T. ) ;
#45 = CARTESIAN_POINT ( 'NONE',  ( -4.000000000000000000, 0.000000000000000000, 130.0000000000000000 ) ) ;
#46 = EDGE_LOOP ( 'NONE', ( #72, #234 ) ) ;
#47 = LINE ( 'NONE', #45, #92 ) ;
#48 = APPROVAL_ROLE ( '' ) ;
#49 = CARTESIAN_POINT ( 'NONE',  ( 0.000000000000000000, 0.000000000000000000, 5.000000000000000000 ) ) ;
#50 = APPLICATION_PROTOCOL_DEFINITION ( 'international standard', 'config_control_design', 1994, #18 ) ;
#51 = ORIENTED_EDGE ( 'NONE', *, *, #205, .F. ) ;
#52 = CALENDAR_DATE ( 2022, 7, 7 ) ;
#53 = CARTESIAN_POINT ( 'NONE',  ( 0.000000000000000000, 0.000000000000000000, 0.000000000000000000 ) ) ;
#54 = CALENDAR_DATE ( 2022, 7, 7 ) ;
#55 = PLANE ( 'NONE',  #102 ) ;
#56 = AXIS2_PLACEMENT_3D ( 'NONE', #119, #2, #124 ) ;
#57 = EDGE_LOOP ( 'NONE', ( #148, #140, #244, #68 ) ) ;
#58 = LOCAL_TIME ( 19, 33, 36.00000000000000000, #149 ) ;
#59 = EDGE_CURVE ( 'NONE', #218, #188, #156, .T. ) ;
#60 = AXIS2_PLACEMENT_3D ( 'NONE', #193, #12, #214 ) ;
#61 = CARTESIAN_POINT ( 'NONE',  ( 7.000000000000000000, 8.572527594031473190E-16, 0.000000000000000000 ) ) ;
#62 = DIRECTION ( 'NONE',  ( -1.000000000000000000, 0.000000000000000000, 0.000000000000000000 ) ) ;
#63 = MANIFOLD_SOLID_BREP ( 'Pøidat vysunutím3', #111 ) ;
#64 =( NAMED_UNIT ( * ) PLANE_ANGLE_UNIT ( ) SI_UNIT ( $, .RADIAN. ) );
#65 = MECHANICAL_CONTEXT ( 'NONE', #1, 'mechanical' ) ;
#66 = ORIENTED_EDGE ( 'NONE', *, *, #114, .T. ) ;
#67 = APPROVAL_ROLE ( '' ) ;
#68 = ORIENTED_EDGE ( 'NONE', *, *, #117, .T. ) ;
#69 = ORIENTED_EDGE ( 'NONE', *, *, #117, .F. ) ;
#70 = CYLINDRICAL_SURFACE ( 'NONE', #187, 7.000000000000000000 ) ;
#71 = CC_DESIGN_DATE_AND_TIME_ASSIGNMENT ( #84, #197, ( #85 ) ) ;
#72 = ORIENTED_EDGE ( 'NONE', *, *, #114, .F. ) ;
#73 = PERSON ( 'NEURÈENÝ', 'NEURÈENÝ', 'NEURÈENÝ', ('NEURÈENÝ'), ('NEURÈENÝ'), ('NEURÈENÝ') ) ;
#74 = ORIENTED_EDGE ( 'NONE', *, *, #150, .T. ) ;
#75 = CIRCLE ( 'NONE', #240, 4.000000000000000000 ) ;
#76 =( GEOMETRIC_REPRESENTATION_CONTEXT ( 3 ) GLOBAL_UNCERTAINTY_ASSIGNED_CONTEXT ( ( #36 ) ) GLOBAL_UNIT_ASSIGNED_CONTEXT ( ( #25, #64, #26 ) ) REPRESENTATION_CONTEXT ( 'NONE', 'WORKASPACE' ) );
#77 = DIRECTION ( 'NONE',  ( -0.000000000000000000, -0.000000000000000000, -1.000000000000000000 ) ) ;
#78 = CARTESIAN_POINT ( 'NONE',  ( 0.000000000000000000, 0.000000000000000000, 130.0000000000000000 ) ) ;
#79 = DIRECTION ( 'NONE',  ( 0.000000000000000000, 0.000000000000000000, 1.000000000000000000 ) ) ;
#80 = PRODUCT_DEFINITION_SHAPE ( 'NONE', 'NONE',  #85 ) ;
#81 = DIRECTION ( 'NONE',  ( -0.000000000000000000, -0.000000000000000000, -1.000000000000000000 ) ) ;
#82 = SECURITY_CLASSIFICATION_LEVEL ( 'unclassified' ) ;
#83 = FACE_OUTER_BOUND ( 'NONE', #209, .T. ) ;
#84 = DATE_AND_TIME ( #54, #21 ) ;
#85 = PRODUCT_DEFINITION ( 'NEZNÁMÝ', '', #165, #137 ) ;
#86 = CARTESIAN_POINT ( 'NONE',  ( 0.000000000000000000, 0.000000000000000000, 5.000000000000000000 ) ) ;
#87 = CC_DESIGN_SECURITY_CLASSIFICATION ( #203, ( #165 ) ) ;
#88 = CARTESIAN_POINT ( 'NONE',  ( 4.000000000000000000, 4.898587196589412829E-16, 130.0000000000000000 ) ) ;
#89 = PERSON_AND_ORGANIZATION_ROLE ( 'design_owner' ) ;
#90 = DIRECTION ( 'NONE',  ( 0.000000000000000000, 0.000000000000000000, 1.000000000000000000 ) ) ;
#91 = APPROVAL_DATE_TIME ( #127, #174 ) ;
#92 = VECTOR ( 'NONE', #81, 1000.000000000000000 ) ;
#93 = ORIENTED_EDGE ( 'NONE', *, *, #184, .T. ) ;
#94 = EDGE_CURVE ( 'NONE', #135, #218, #195, .T. ) ;
#95 = EDGE_LOOP ( 'NONE', ( #51, #145, #196, #7 ) ) ;
#96 = VECTOR ( 'NONE', #212, 1000.000000000000000 ) ;
#97 = LOCAL_TIME ( 19, 33, 36.00000000000000000, #245 ) ;
#98 = DIRECTION ( 'NONE',  ( 1.000000000000000000, 0.000000000000000000, -0.000000000000000000 ) ) ;
#99 = APPROVAL_PERSON_ORGANIZATION ( #229, #174, #132 ) ;
#100 = DIRECTION ( 'NONE',  ( 0.000000000000000000, 0.000000000000000000, 1.000000000000000000 ) ) ;
#101 = DIRECTION ( 'NONE',  ( 1.000000000000000000, 0.000000000000000000, 0.000000000000000000 ) ) ;
#102 = AXIS2_PLACEMENT_3D ( 'NONE', #169, #223, #226 ) ;
#103 = ADVANCED_FACE ( 'NONE', ( #106 ), #55, .F. ) ;
#104 = LINE ( 'NONE', #221, #225 ) ;
#105 = CIRCLE ( 'NONE', #161, 7.000000000000000000 ) ;
#106 = FACE_OUTER_BOUND ( 'NONE', #198, .T. ) ;
#107 = PERSON_AND_ORGANIZATION_ROLE ( 'design_supplier' ) ;
#108 = FACE_BOUND ( 'NONE', #46, .T. ) ;
#109 = PERSON_AND_ORGANIZATION ( #73, #182 ) ;
#110 = DIRECTION ( 'NONE',  ( 1.000000000000000000, 0.000000000000000000, 0.000000000000000000 ) ) ;
#111 = CLOSED_SHELL ( 'NONE', ( #178, #190, #17, #44, #103, #11, #208 ) ) ;
#112 = PERSON_AND_ORGANIZATION ( #73, #182 ) ;
#113 = DIRECTION ( 'NONE',  ( -1.000000000000000000, 0.000000000000000000, 0.000000000000000000 ) ) ;
#114 = EDGE_CURVE ( 'NONE', #228, #250, #75, .T. ) ;
#115 = AXIS2_PLACEMENT_3D ( 'NONE', #210, #28, #185 ) ;
#116 = EDGE_LOOP ( 'NONE', ( #128, #138, #74, #66 ) ) ;
#117 = EDGE_CURVE ( 'NONE', #188, #218, #20, .T. ) ;
#118 = EDGE_LOOP ( 'NONE', ( #93, #37 ) ) ;
#119 = CARTESIAN_POINT ( 'NONE',  ( 0.000000000000000000, 0.000000000000000000, 5.000000000000000000 ) ) ;
#120 = CARTESIAN_POINT ( 'NONE',  ( -7.000000000000000000, 0.000000000000000000, 0.000000000000000000 ) ) ;
#121 = CC_DESIGN_PERSON_AND_ORGANIZATION_ASSIGNMENT ( #16, #89, ( #130 ) ) ;
#122 = LOCAL_TIME ( 19, 33, 36.00000000000000000, #8 ) ;
#123 = CARTESIAN_POINT ( 'NONE',  ( 0.000000000000000000, 0.000000000000000000, 130.0000000000000000 ) ) ;
#124 = DIRECTION ( 'NONE',  ( -1.000000000000000000, 0.000000000000000000, 0.000000000000000000 ) ) ;
#125 = AXIS2_PLACEMENT_3D ( 'NONE', #123, #186, #62 ) ;
#126 = VERTEX_POINT ( 'NONE', #88 ) ;
#127 = DATE_AND_TIME ( #154, #122 ) ;
#128 = ORIENTED_EDGE ( 'NONE', *, *, #141, .F. ) ;
#129 = CALENDAR_DATE ( 2022, 7, 7 ) ;
#130 = PRODUCT ( 'a4e8', 'a4e8', '', ( #65 ) ) ;
#131 = FACE_OUTER_BOUND ( 'NONE', #116, .T. ) ;
#132 = APPROVAL_ROLE ( '' ) ;
#133 = CARTESIAN_POINT ( 'NONE',  ( 7.000000000000000000, 8.572527594031473190E-16, 5.000000000000000000 ) ) ;
#134 = DIRECTION ( 'NONE',  ( 0.000000000000000000, 0.000000000000000000, 1.000000000000000000 ) ) ;
#135 = VERTEX_POINT ( 'NONE', #133 ) ;
#136 = VERTEX_POINT ( 'NONE', #34 ) ;
#137 = DESIGN_CONTEXT ( 'detailed design', #18, 'design' ) ;
#138 = ORIENTED_EDGE ( 'NONE', *, *, #184, .F. ) ;
#139 = APPROVAL_PERSON_ORGANIZATION ( #109, #38, #67 ) ;
#140 = ORIENTED_EDGE ( 'NONE', *, *, #201, .F. ) ;
#141 = EDGE_CURVE ( 'NONE', #126, #250, #104, .T. ) ;
#142 = FACE_OUTER_BOUND ( 'NONE', #95, .T. ) ;
#143 = CYLINDRICAL_SURFACE ( 'NONE', #56, 7.000000000000000000 ) ;
#144 = CARTESIAN_POINT ( 'NONE',  ( -7.000000000000000000, 0.000000000000000000, 5.000000000000000000 ) ) ;
#145 = ORIENTED_EDGE ( 'NONE', *, *, #94, .T. ) ;
#146 = CARTESIAN_POINT ( 'NONE',  ( 0.000000000000000000, 0.000000000000000000, 5.000000000000000000 ) ) ;
#147 = PERSON_AND_ORGANIZATION_ROLE ( 'creator' ) ;
#148 = ORIENTED_EDGE ( 'NONE', *, *, #94, .F. ) ;
#149 = COORDINATED_UNIVERSAL_TIME_OFFSET ( 1, 0, .AHEAD. ) ;
#150 = EDGE_CURVE ( 'NONE', #136, #228, #47, .T. ) ;
#151 = PLANE ( 'NONE',  #4 ) ;
#152 = DIRECTION ( 'NONE',  ( -1.000000000000000000, 0.000000000000000000, 0.000000000000000000 ) ) ;
#153 = CC_DESIGN_PERSON_AND_ORGANIZATION_ASSIGNMENT ( #179, #252, ( #203 ) ) ;
#154 = CALENDAR_DATE ( 2022, 7, 7 ) ;
#155 = DIRECTION ( 'NONE',  ( 1.000000000000000000, 0.000000000000000000, -0.000000000000000000 ) ) ;
#156 = CIRCLE ( 'NONE', #254, 7.000000000000000000 ) ;
#157 = VERTEX_POINT ( 'NONE', #144 ) ;
#158 = ORIENTED_EDGE ( 'NONE', *, *, #205, .T. ) ;
#159 = VECTOR ( 'NONE', #77, 1000.000000000000000 ) ;
#160 = AXIS2_PLACEMENT_3D ( 'NONE', #171, #175, #152 ) ;
#161 = AXIS2_PLACEMENT_3D ( 'NONE', #146, #162, #101 ) ;
#162 = DIRECTION ( 'NONE',  ( 0.000000000000000000, 0.000000000000000000, 1.000000000000000000 ) ) ;
#163 = DIRECTION ( 'NONE',  ( 1.000000000000000000, 0.000000000000000000, 0.000000000000000000 ) ) ;
#164 = PRODUCT_RELATED_PRODUCT_CATEGORY ( 'detail', '', ( #130 ) ) ;
#165 = PRODUCT_DEFINITION_FORMATION_WITH_SPECIFIED_SOURCE ( 'LIBOVOLNÝ', '', #130, .NOT_KNOWN. ) ;
#166 = PLANE ( 'NONE',  #253 ) ;
#167 = LINE ( 'NONE', #255, #159 ) ;
#168 = APPROVAL_STATUS ( 'not_yet_approved' ) ;
#169 = CARTESIAN_POINT ( 'NONE',  ( 0.000000000000000000, 0.000000000000000000, 0.000000000000000000 ) ) ;
#170 = APPROVAL_STATUS ( 'not_yet_approved' ) ;
#171 = CARTESIAN_POINT ( 'NONE',  ( 0.000000000000000000, 0.000000000000000000, 130.0000000000000000 ) ) ;
#172 = DATE_AND_TIME ( #52, #97 ) ;
#173 = CC_DESIGN_APPROVAL ( #238, ( #85 ) ) ;
#174 = APPROVAL ( #168, 'NEURÈENÝ' ) ;
#175 = DIRECTION ( 'NONE',  ( -0.000000000000000000, -0.000000000000000000, -1.000000000000000000 ) ) ;
#176 = COORDINATED_UNIVERSAL_TIME_OFFSET ( 1, 0, .AHEAD. ) ;
#177 = ORIENTED_EDGE ( 'NONE', *, *, #141, .T. ) ;
#178 = ADVANCED_FACE ( 'NONE', ( #40 ), #41, .T. ) ;
#179 = PERSON_AND_ORGANIZATION ( #73, #182 ) ;
#180 = ORIENTED_EDGE ( 'NONE', *, *, #59, .F. ) ;
#181 = CIRCLE ( 'NONE', #216, 7.000000000000000000 ) ;
#182 = ORGANIZATION ( 'NEURÈENÝ', 'NEURÈENÝ', '' ) ;
#183 = CC_DESIGN_PERSON_AND_ORGANIZATION_ASSIGNMENT ( #213, #248, ( #165 ) ) ;
#184 = EDGE_CURVE ( 'NONE', #136, #126, #220, .T. ) ;
#185 = DIRECTION ( 'NONE',  ( 1.000000000000000000, 0.000000000000000000, 0.000000000000000000 ) ) ;
#186 = DIRECTION ( 'NONE',  ( -0.000000000000000000, -0.000000000000000000, -1.000000000000000000 ) ) ;
#187 = AXIS2_PLACEMENT_3D ( 'NONE', #230, #191, #113 ) ;
#188 = VERTEX_POINT ( 'NONE', #120 ) ;
#189 = DATE_TIME_ROLE ( 'classification_date' ) ;
#190 = ADVANCED_FACE ( 'NONE', ( #142 ), #143, .T. ) ;
#191 = DIRECTION ( 'NONE',  ( -0.000000000000000000, -0.000000000000000000, -1.000000000000000000 ) ) ;
#192 = APPROVAL_STATUS ( 'not_yet_approved' ) ;
#193 = CARTESIAN_POINT ( 'NONE',  ( 0.000000000000000000, 0.000000000000000000, 0.000000000000000000 ) ) ;
#194 = DATE_AND_TIME ( #215, #23 ) ;
#195 = LINE ( 'NONE', #32, #96 ) ;
#196 = ORIENTED_EDGE ( 'NONE', *, *, #59, .T. ) ;
#197 = DATE_TIME_ROLE ( 'creation_date' ) ;
#198 = EDGE_LOOP ( 'NONE', ( #69, #180 ) ) ;
#199 = AXIS2_PLACEMENT_3D ( 'NONE', #6, #134, #231 ) ;
#200 = EDGE_CURVE ( 'NONE', #157, #188, #167, .T. ) ;
#201 = EDGE_CURVE ( 'NONE', #157, #135, #105, .T. ) ;
#202 = CC_DESIGN_PERSON_AND_ORGANIZATION_ASSIGNMENT ( #112, #147, ( #85 ) ) ;
#203 = SECURITY_CLASSIFICATION ( '', '', #82 ) ;
#204 = CARTESIAN_POINT ( 'NONE',  ( -4.000000000000000000, 0.000000000000000000, 5.000000000000000000 ) ) ;
#205 = EDGE_CURVE ( 'NONE', #135, #157, #181, .T. ) ;
#206 = CARTESIAN_POINT ( 'NONE',  ( 4.000000000000000000, 4.898587196589412829E-16, 5.000000000000000000 ) ) ;
#207 = CC_DESIGN_PERSON_AND_ORGANIZATION_ASSIGNMENT ( #29, #107, ( #165 ) ) ;
#208 = ADVANCED_FACE ( 'NONE', ( #24 ), #166, .T. ) ;
#209 = EDGE_LOOP ( 'NONE', ( #19, #158 ) ) ;
#210 = CARTESIAN_POINT ( 'NONE',  ( 0.000000000000000000, 0.000000000000000000, 130.0000000000000000 ) ) ;
#211 = PERSON_AND_ORGANIZATION ( #73, #182 ) ;
#212 = DIRECTION ( 'NONE',  ( -0.000000000000000000, -0.000000000000000000, -1.000000000000000000 ) ) ;
#213 = PERSON_AND_ORGANIZATION ( #73, #182 ) ;
#214 = DIRECTION ( 'NONE',  ( 1.000000000000000000, 0.000000000000000000, 0.000000000000000000 ) ) ;
#215 = CALENDAR_DATE ( 2022, 7, 7 ) ;
#216 = AXIS2_PLACEMENT_3D ( 'NONE', #237, #5, #3 ) ;
#217 = ORIENTED_EDGE ( 'NONE', *, *, #249, .T. ) ;
#218 = VERTEX_POINT ( 'NONE', #61 ) ;
#219 = ORIENTED_EDGE ( 'NONE', *, *, #150, .F. ) ;
#220 = CIRCLE ( 'NONE', #115, 4.000000000000000000 ) ;
#221 = CARTESIAN_POINT ( 'NONE',  ( 4.000000000000000000, 4.898587196589412829E-16, 130.0000000000000000 ) ) ;
#222 = CARTESIAN_POINT ( 'NONE',  ( 0.000000000000000000, 0.000000000000000000, 5.000000000000000000 ) ) ;
#223 = DIRECTION ( 'NONE',  ( 0.000000000000000000, 0.000000000000000000, 1.000000000000000000 ) ) ;
#224 = APPROVAL_DATE_TIME ( #172, #238 ) ;
#225 = VECTOR ( 'NONE', #22, 1000.000000000000000 ) ;
#226 = DIRECTION ( 'NONE',  ( 1.000000000000000000, 0.000000000000000000, -0.000000000000000000 ) ) ;
#227 = APPROVAL_PERSON_ORGANIZATION ( #211, #238, #48 ) ;
#228 = VERTEX_POINT ( 'NONE', #204 ) ;
#229 = PERSON_AND_ORGANIZATION ( #73, #182 ) ;
#230 = CARTESIAN_POINT ( 'NONE',  ( 0.000000000000000000, 0.000000000000000000, 5.000000000000000000 ) ) ;
#231 = DIRECTION ( 'NONE',  ( 1.000000000000000000, 0.000000000000000000, 0.000000000000000000 ) ) ;
#232 = DIRECTION ( 'NONE',  ( 0.000000000000000000, 0.000000000000000000, 1.000000000000000000 ) ) ;
#233 = CC_DESIGN_DATE_AND_TIME_ASSIGNMENT ( #194, #189, ( #203 ) ) ;
#234 = ORIENTED_EDGE ( 'NONE', *, *, #249, .F. ) ;
#235 = AXIS2_PLACEMENT_3D ( 'NONE', #222, #100, #239 ) ;
#236 = CIRCLE ( 'NONE', #235, 4.000000000000000000 ) ;
#237 = CARTESIAN_POINT ( 'NONE',  ( 0.000000000000000000, 0.000000000000000000, 5.000000000000000000 ) ) ;
#238 = APPROVAL ( #192, 'NEURÈENÝ' ) ;
#239 = DIRECTION ( 'NONE',  ( 1.000000000000000000, 0.000000000000000000, 0.000000000000000000 ) ) ;
#240 = AXIS2_PLACEMENT_3D ( 'NONE', #86, #90, #110 ) ;
#241 = CARTESIAN_POINT ( 'NONE',  ( 0.000000000000000000, 0.000000000000000000, 130.0000000000000000 ) ) ;
#242 = EDGE_CURVE ( 'NONE', #126, #136, #35, .T. ) ;
#243 = COORDINATED_UNIVERSAL_TIME_OFFSET ( 1, 0, .AHEAD. ) ;
#244 = ORIENTED_EDGE ( 'NONE', *, *, #200, .T. ) ;
#245 = COORDINATED_UNIVERSAL_TIME_OFFSET ( 1, 0, .AHEAD. ) ;
#246 = FACE_OUTER_BOUND ( 'NONE', #57, .T. ) ;
#247 = CC_DESIGN_APPROVAL ( #174, ( #165 ) ) ;
#248 = PERSON_AND_ORGANIZATION_ROLE ( 'creator' ) ;
#249 = EDGE_CURVE ( 'NONE', #250, #228, #236, .T. ) ;
#250 = VERTEX_POINT ( 'NONE', #206 ) ;
#251 = EDGE_LOOP ( 'NONE', ( #27, #177, #217, #219 ) ) ;
#252 = PERSON_AND_ORGANIZATION_ROLE ( 'classification_officer' ) ;
#253 = AXIS2_PLACEMENT_3D ( 'NONE', #241, #43, #98 ) ;
#254 = AXIS2_PLACEMENT_3D ( 'NONE', #53, #232, #15 ) ;
#255 = CARTESIAN_POINT ( 'NONE',  ( -7.000000000000000000, 0.000000000000000000, 5.000000000000000000 ) ) ;
ENDSEC;
END-ISO-10303-21;
