ISO-10303-21;
HEADER;
FILE_DESCRIPTION (( 'STEP AP203' ),
    '1' );
FILE_NAME ('39ff.STEP',
    '2022-07-07T17:47:39',
    ( '' ),
    ( '' ),
    'SwSTEP 2.0',
    'SolidWorks 2019',
    '' );
FILE_SCHEMA (( 'CONFIG_CONTROL_DESIGN' ));
ENDSEC;

DATA;
#1 = APPROVAL_ROLE ( '' ) ;
#2 = EDGE_LOOP ( 'NONE', ( #22, #166, #9, #118 ) ) ;
#3 = COORDINATED_UNIVERSAL_TIME_OFFSET ( 1, 0, .AHEAD. ) ;
#4 = ORIENTED_EDGE ( 'NONE', *, *, #19, .T. ) ;
#5 = CC_DESIGN_DATE_AND_TIME_ASSIGNMENT ( #97, #77, ( #100 ) ) ;
#6 = ORIENTED_EDGE ( 'NONE', *, *, #171, .F. ) ;
#7 = AXIS2_PLACEMENT_3D ( 'NONE', #207, #54, #105 ) ;
#8 = AXIS2_PLACEMENT_3D ( 'NONE', #227, #183, #161 ) ;
#9 = ORIENTED_EDGE ( 'NONE', *, *, #204, .T. ) ;
#10 = EDGE_CURVE ( 'NONE', #42, #102, #250, .T. ) ;
#11 = AXIS2_PLACEMENT_3D ( 'NONE', #208, #123, #205 ) ;
#12 = CARTESIAN_POINT ( 'NONE',  ( 2.500000000000000000, 3.061616997868383141E-16, 3.000000000000000000 ) ) ;
#13 = FACE_OUTER_BOUND ( 'NONE', #25, .T. ) ;
#14 = VECTOR ( 'NONE', #151, 1000.000000000000000 ) ;
#15 =( LENGTH_UNIT ( ) NAMED_UNIT ( * ) SI_UNIT ( .MILLI., .METRE. ) );
#16 = FACE_OUTER_BOUND ( 'NONE', #2, .T. ) ;
#17 = ADVANCED_FACE ( 'NONE', ( #239 ), #65, .T. ) ;
#18 = DIRECTION ( 'NONE',  ( -0.000000000000000000, -0.000000000000000000, -1.000000000000000000 ) ) ;
#19 = EDGE_CURVE ( 'NONE', #81, #31, #152, .T. ) ;
#20 = DATE_AND_TIME ( #176, #221 ) ;
#21 = EDGE_CURVE ( 'NONE', #120, #81, #46, .T. ) ;
#22 = ORIENTED_EDGE ( 'NONE', *, *, #187, .F. ) ;
#23 = CALENDAR_DATE ( 2022, 7, 7 ) ;
#24 = APPROVAL_DATE_TIME ( #20, #106 ) ;
#25 = EDGE_LOOP ( 'NONE', ( #50, #201, #145, #84 ) ) ;
#26 = EDGE_CURVE ( 'NONE', #215, #186, #253, .T. ) ;
#27 = PERSON_AND_ORGANIZATION ( #243, #70 ) ;
#28 = DIRECTION ( 'NONE',  ( 0.000000000000000000, 0.000000000000000000, 1.000000000000000000 ) ) ;
#29 = APPROVAL_PERSON_ORGANIZATION ( #27, #106, #1 ) ;
#30 = CC_DESIGN_SECURITY_CLASSIFICATION ( #100, ( #245 ) ) ;
#31 = VERTEX_POINT ( 'NONE', #235 ) ;
#32 = AXIS2_PLACEMENT_3D ( 'NONE', #217, #28, #196 ) ;
#33 = ORIENTED_EDGE ( 'NONE', *, *, #19, .F. ) ;
#34 = LINE ( 'NONE', #179, #85 ) ;
#35 = CC_DESIGN_APPROVAL ( #121, ( #159 ) ) ;
#36 = DIRECTION ( 'NONE',  ( -0.000000000000000000, -0.000000000000000000, -1.000000000000000000 ) ) ;
#37 = DIRECTION ( 'NONE',  ( -1.000000000000000000, 0.000000000000000000, 0.000000000000000000 ) ) ;
#38 = LINE ( 'NONE', #89, #213 ) ;
#39 = DIRECTION ( 'NONE',  ( -0.000000000000000000, -0.000000000000000000, -1.000000000000000000 ) ) ;
#40 = ADVANCED_FACE ( 'NONE', ( #62 ), #129, .F. ) ;
#41 = CC_DESIGN_APPROVAL ( #225, ( #100 ) ) ;
#42 = VERTEX_POINT ( 'NONE', #237 ) ;
#43 = ORIENTED_EDGE ( 'NONE', *, *, #26, .T. ) ;
#44 = PERSON_AND_ORGANIZATION ( #243, #70 ) ;
#45 = DATE_AND_TIME ( #61, #98 ) ;
#46 = LINE ( 'NONE', #148, #14 ) ;
#47 = FACE_OUTER_BOUND ( 'NONE', #153, .T. ) ;
#48 = APPROVAL_ROLE ( '' ) ;
#49 = EDGE_LOOP ( 'NONE', ( #220, #178 ) ) ;
#50 = ORIENTED_EDGE ( 'NONE', *, *, #200, .F. ) ;
#51 = FACE_OUTER_BOUND ( 'NONE', #49, .T. ) ;
#52 = ADVANCED_BREP_SHAPE_REPRESENTATION ( '39ff', ( #130, #154 ), #93 ) ;
#53 = DIRECTION ( 'NONE',  ( -0.000000000000000000, -0.000000000000000000, -1.000000000000000000 ) ) ;
#54 = DIRECTION ( 'NONE',  ( 0.000000000000000000, 0.000000000000000000, 1.000000000000000000 ) ) ;
#55 = DIRECTION ( 'NONE',  ( 0.000000000000000000, 0.000000000000000000, 1.000000000000000000 ) ) ;
#56 = AXIS2_PLACEMENT_3D ( 'NONE', #134, #233, #96 ) ;
#57 = CIRCLE ( 'NONE', #7, 2.500000000000000000 ) ;
#58 = PERSON_AND_ORGANIZATION ( #243, #70 ) ;
#59 = DIRECTION ( 'NONE',  ( 1.000000000000000000, 0.000000000000000000, 0.000000000000000000 ) ) ;
#60 = ORIENTED_EDGE ( 'NONE', *, *, #212, .F. ) ;
#61 = CALENDAR_DATE ( 2022, 7, 7 ) ;
#62 = FACE_OUTER_BOUND ( 'NONE', #139, .T. ) ;
#63 = CIRCLE ( 'NONE', #206, 5.000000000000000000 ) ;
#64 = CARTESIAN_POINT ( 'NONE',  ( 0.000000000000000000, 0.000000000000000000, 3.000000000000000000 ) ) ;
#65 = CYLINDRICAL_SURFACE ( 'NONE', #238, 2.500000000000000000 ) ;
#66 = EDGE_LOOP ( 'NONE', ( #228, #218, #43, #155 ) ) ;
#67 = DIRECTION ( 'NONE',  ( -1.000000000000000000, 0.000000000000000000, 0.000000000000000000 ) ) ;
#68 = CARTESIAN_POINT ( 'NONE',  ( -5.000000000000000000, 0.000000000000000000, 0.000000000000000000 ) ) ;
#69 = ADVANCED_FACE ( 'NONE', ( #47 ), #99, .T. ) ;
#70 = ORGANIZATION ( 'NEURÈENÝ', 'NEURÈENÝ', '' ) ;
#71 = DIRECTION ( 'NONE',  ( 0.000000000000000000, 0.000000000000000000, 1.000000000000000000 ) ) ;
#72 = DIRECTION ( 'NONE',  ( 0.000000000000000000, 0.000000000000000000, 1.000000000000000000 ) ) ;
#73 = CIRCLE ( 'NONE', #167, 5.000000000000000000 ) ;
#74 = PRODUCT_RELATED_PRODUCT_CATEGORY ( 'detail', '', ( #210 ) ) ;
#75 = MECHANICAL_CONTEXT ( 'NONE', #114, 'mechanical' ) ;
#76 = EDGE_CURVE ( 'NONE', #31, #81, #63, .T. ) ;
#77 = DATE_TIME_ROLE ( 'classification_date' ) ;
#78 = CALENDAR_DATE ( 2022, 7, 7 ) ;
#79 = AXIS2_PLACEMENT_3D ( 'NONE', #182, #156, #242 ) ;
#80 = CARTESIAN_POINT ( 'NONE',  ( 0.000000000000000000, 0.000000000000000000, 103.0000000000000142 ) ) ;
#81 = VERTEX_POINT ( 'NONE', #68 ) ;
#82 = EDGE_CURVE ( 'NONE', #102, #42, #57, .T. ) ;
#83 = DATE_AND_TIME ( #170, #230 ) ;
#84 = ORIENTED_EDGE ( 'NONE', *, *, #21, .F. ) ;
#85 = VECTOR ( 'NONE', #53, 1000.000000000000000 ) ;
#86 = FACE_BOUND ( 'NONE', #177, .T. ) ;
#87 = DIRECTION ( 'NONE',  ( 1.000000000000000000, 0.000000000000000000, 0.000000000000000000 ) ) ;
#88 = CARTESIAN_POINT ( 'NONE',  ( 2.500000000000000000, 3.061616997868383141E-16, 103.0000000000000142 ) ) ;
#89 = CARTESIAN_POINT ( 'NONE',  ( -2.500000000000000000, 0.000000000000000000, 103.0000000000000142 ) ) ;
#90 = AXIS2_PLACEMENT_3D ( 'NONE', #136, #137, #244 ) ;
#91 = CC_DESIGN_APPROVAL ( #106, ( #245 ) ) ;
#92 = PERSON_AND_ORGANIZATION_ROLE ( 'creator' ) ;
#93 =( GEOMETRIC_REPRESENTATION_CONTEXT ( 3 ) GLOBAL_UNCERTAINTY_ASSIGNED_CONTEXT ( ( #133 ) ) GLOBAL_UNIT_ASSIGNED_CONTEXT ( ( #15, #150, #146 ) ) REPRESENTATION_CONTEXT ( 'NONE', 'WORKASPACE' ) );
#94 = PERSON_AND_ORGANIZATION_ROLE ( 'creator' ) ;
#95 = PERSON_AND_ORGANIZATION_ROLE ( 'classification_officer' ) ;
#96 = DIRECTION ( 'NONE',  ( 1.000000000000000000, 0.000000000000000000, 0.000000000000000000 ) ) ;
#97 = DATE_AND_TIME ( #78, #160 ) ;
#98 = LOCAL_TIME ( 19, 47, 39.00000000000000000, #195 ) ;
#99 = CYLINDRICAL_SURFACE ( 'NONE', #108, 5.000000000000000000 ) ;
#100 = SECURITY_CLASSIFICATION ( '', '', #143 ) ;
#101 = CARTESIAN_POINT ( 'NONE',  ( 0.000000000000000000, 0.000000000000000000, 103.0000000000000142 ) ) ;
#102 = VERTEX_POINT ( 'NONE', #203 ) ;
#103 = CARTESIAN_POINT ( 'NONE',  ( 0.000000000000000000, 0.000000000000000000, 3.000000000000000000 ) ) ;
#104 = PLANE ( 'NONE',  #79 ) ;
#105 = DIRECTION ( 'NONE',  ( 1.000000000000000000, 0.000000000000000000, 0.000000000000000000 ) ) ;
#106 = APPROVAL ( #190, 'NEURÈENÝ' ) ;
#107 = AXIS2_PLACEMENT_3D ( 'NONE', #122, #36, #37 ) ;
#108 = AXIS2_PLACEMENT_3D ( 'NONE', #64, #39, #67 ) ;
#109 = COORDINATED_UNIVERSAL_TIME_OFFSET ( 1, 0, .AHEAD. ) ;
#110 = VECTOR ( 'NONE', #18, 1000.000000000000000 ) ;
#111 = ORIENTED_EDGE ( 'NONE', *, *, #82, .T. ) ;
#112 = DATE_TIME_ROLE ( 'creation_date' ) ;
#113 = CARTESIAN_POINT ( 'NONE',  ( 0.000000000000000000, 0.000000000000000000, 3.000000000000000000 ) ) ;
#114 = APPLICATION_CONTEXT ( 'configuration controlled 3d designs of mechanical parts and assemblies' ) ;
#115 = APPROVAL_STATUS ( 'not_yet_approved' ) ;
#116 = ORIENTED_EDGE ( 'NONE', *, *, #10, .T. ) ;
#117 = CC_DESIGN_DATE_AND_TIME_ASSIGNMENT ( #45, #112, ( #159 ) ) ;
#118 = ORIENTED_EDGE ( 'NONE', *, *, #171, .T. ) ;
#119 = APPROVAL_DATE_TIME ( #83, #225 ) ;
#120 = VERTEX_POINT ( 'NONE', #247 ) ;
#121 = APPROVAL ( #115, 'NEURÈENÝ' ) ;
#122 = CARTESIAN_POINT ( 'NONE',  ( 0.000000000000000000, 0.000000000000000000, 3.000000000000000000 ) ) ;
#123 = DIRECTION ( 'NONE',  ( 0.000000000000000000, 0.000000000000000000, 1.000000000000000000 ) ) ;
#124 = FACE_OUTER_BOUND ( 'NONE', #165, .T. ) ;
#125 = DIRECTION ( 'NONE',  ( 1.000000000000000000, 0.000000000000000000, 0.000000000000000000 ) ) ;
#126 = AXIS2_PLACEMENT_3D ( 'NONE', #113, #194, #173 ) ;
#127 = CIRCLE ( 'NONE', #11, 5.000000000000000000 ) ;
#128 = DIRECTION ( 'NONE',  ( 0.000000000000000000, 0.000000000000000000, 1.000000000000000000 ) ) ;
#129 = PLANE ( 'NONE',  #32 ) ;
#130 = MANIFOLD_SOLID_BREP ( 'Pøidat vysunutím3', #163 ) ;
#131 = PERSON_AND_ORGANIZATION ( #243, #70 ) ;
#132 = ORIENTED_EDGE ( 'NONE', *, *, #211, .F. ) ;
#133 = UNCERTAINTY_MEASURE_WITH_UNIT (LENGTH_MEASURE( 1.000000000000000082E-05 ), #15, 'distance_accuracy_value', 'NONE');
#134 = CARTESIAN_POINT ( 'NONE',  ( 0.000000000000000000, 0.000000000000000000, 0.000000000000000000 ) ) ;
#135 = DIRECTION ( 'NONE',  ( -1.000000000000000000, 0.000000000000000000, 0.000000000000000000 ) ) ;
#136 = CARTESIAN_POINT ( 'NONE',  ( 0.000000000000000000, 0.000000000000000000, 103.0000000000000142 ) ) ;
#137 = DIRECTION ( 'NONE',  ( 0.000000000000000000, 0.000000000000000000, 1.000000000000000000 ) ) ;
#138 = CYLINDRICAL_SURFACE ( 'NONE', #8, 2.500000000000000000 ) ;
#139 = EDGE_LOOP ( 'NONE', ( #33, #175 ) ) ;
#140 = CARTESIAN_POINT ( 'NONE',  ( 5.000000000000000000, 6.123233995736766282E-16, 3.000000000000000000 ) ) ;
#141 = CC_DESIGN_PERSON_AND_ORGANIZATION_ASSIGNMENT ( #58, #95, ( #100 ) ) ;
#142 = ADVANCED_FACE ( 'NONE', ( #16 ), #138, .T. ) ;
#143 = SECURITY_CLASSIFICATION_LEVEL ( 'unclassified' ) ;
#144 = PERSON_AND_ORGANIZATION ( #243, #70 ) ;
#145 = ORIENTED_EDGE ( 'NONE', *, *, #76, .T. ) ;
#146 =( NAMED_UNIT ( * ) SI_UNIT ( $, .STERADIAN. ) SOLID_ANGLE_UNIT ( ) );
#147 = ADVANCED_FACE ( 'NONE', ( #124 ), #158, .T. ) ;
#148 = CARTESIAN_POINT ( 'NONE',  ( -5.000000000000000000, 0.000000000000000000, 3.000000000000000000 ) ) ;
#149 = SHAPE_DEFINITION_REPRESENTATION ( #162, #52 ) ;
#150 =( NAMED_UNIT ( * ) PLANE_ANGLE_UNIT ( ) SI_UNIT ( $, .RADIAN. ) );
#151 = DIRECTION ( 'NONE',  ( -0.000000000000000000, -0.000000000000000000, -1.000000000000000000 ) ) ;
#152 = CIRCLE ( 'NONE', #56, 5.000000000000000000 ) ;
#153 = EDGE_LOOP ( 'NONE', ( #132, #60, #222, #4 ) ) ;
#154 = AXIS2_PLACEMENT_3D ( 'NONE', #255, #198, #59 ) ;
#155 = ORIENTED_EDGE ( 'NONE', *, *, #204, .F. ) ;
#156 = DIRECTION ( 'NONE',  ( 0.000000000000000000, 0.000000000000000000, 1.000000000000000000 ) ) ;
#157 = CARTESIAN_POINT ( 'NONE',  ( 0.000000000000000000, 0.000000000000000000, 0.000000000000000000 ) ) ;
#158 = PLANE ( 'NONE',  #90 ) ;
#159 = PRODUCT_DEFINITION ( 'NEZNÁMÝ', '', #245, #184 ) ;
#160 = LOCAL_TIME ( 19, 47, 39.00000000000000000, #109 ) ;
#161 = DIRECTION ( 'NONE',  ( -1.000000000000000000, 0.000000000000000000, 0.000000000000000000 ) ) ;
#162 = PRODUCT_DEFINITION_SHAPE ( 'NONE', 'NONE',  #159 ) ;
#163 = CLOSED_SHELL ( 'NONE', ( #17, #252, #69, #248, #40, #142, #147 ) ) ;
#164 = CC_DESIGN_PERSON_AND_ORGANIZATION_ASSIGNMENT ( #131, #236, ( #210 ) ) ;
#165 = EDGE_LOOP ( 'NONE', ( #116, #111 ) ) ;
#166 = ORIENTED_EDGE ( 'NONE', *, *, #10, .F. ) ;
#167 = AXIS2_PLACEMENT_3D ( 'NONE', #226, #72, #125 ) ;
#168 = DATE_AND_TIME ( #23, #251 ) ;
#169 = PERSON_AND_ORGANIZATION_ROLE ( 'design_supplier' ) ;
#170 = CALENDAR_DATE ( 2022, 7, 7 ) ;
#171 = EDGE_CURVE ( 'NONE', #186, #215, #185, .T. ) ;
#172 = APPLICATION_PROTOCOL_DEFINITION ( 'international standard', 'config_control_design', 1994, #202 ) ;
#173 = DIRECTION ( 'NONE',  ( 1.000000000000000000, 0.000000000000000000, 0.000000000000000000 ) ) ;
#174 = PERSON_AND_ORGANIZATION ( #243, #70 ) ;
#175 = ORIENTED_EDGE ( 'NONE', *, *, #76, .F. ) ;
#176 = CALENDAR_DATE ( 2022, 7, 7 ) ;
#177 = EDGE_LOOP ( 'NONE', ( #6, #254 ) ) ;
#178 = ORIENTED_EDGE ( 'NONE', *, *, #200, .T. ) ;
#179 = CARTESIAN_POINT ( 'NONE',  ( 5.000000000000000000, 6.123233995736766282E-16, 3.000000000000000000 ) ) ;
#180 = DIRECTION ( 'NONE',  ( 1.000000000000000000, 0.000000000000000000, 0.000000000000000000 ) ) ;
#181 = CARTESIAN_POINT ( 'NONE',  ( -2.500000000000000000, 0.000000000000000000, 3.000000000000000000 ) ) ;
#182 = CARTESIAN_POINT ( 'NONE',  ( 0.000000000000000000, 0.000000000000000000, 3.000000000000000000 ) ) ;
#183 = DIRECTION ( 'NONE',  ( -0.000000000000000000, -0.000000000000000000, -1.000000000000000000 ) ) ;
#184 = DESIGN_CONTEXT ( 'detailed design', #202, 'design' ) ;
#185 = CIRCLE ( 'NONE', #209, 2.500000000000000000 ) ;
#186 = VERTEX_POINT ( 'NONE', #181 ) ;
#187 = EDGE_CURVE ( 'NONE', #102, #215, #229, .T. ) ;
#188 = APPLICATION_PROTOCOL_DEFINITION ( 'international standard', 'config_control_design', 1994, #114 ) ;
#189 = APPROVAL_PERSON_ORGANIZATION ( #214, #121, #232 ) ;
#190 = APPROVAL_STATUS ( 'not_yet_approved' ) ;
#191 = CC_DESIGN_PERSON_AND_ORGANIZATION_ASSIGNMENT ( #174, #169, ( #245 ) ) ;
#192 = COORDINATED_UNIVERSAL_TIME_OFFSET ( 1, 0, .AHEAD. ) ;
#193 = COORDINATED_UNIVERSAL_TIME_OFFSET ( 1, 0, .AHEAD. ) ;
#194 = DIRECTION ( 'NONE',  ( 0.000000000000000000, 0.000000000000000000, 1.000000000000000000 ) ) ;
#195 = COORDINATED_UNIVERSAL_TIME_OFFSET ( 1, 0, .AHEAD. ) ;
#196 = DIRECTION ( 'NONE',  ( 1.000000000000000000, 0.000000000000000000, -0.000000000000000000 ) ) ;
#197 = APPROVAL_STATUS ( 'not_yet_approved' ) ;
#198 = DIRECTION ( 'NONE',  ( 0.000000000000000000, 0.000000000000000000, 1.000000000000000000 ) ) ;
#199 = VERTEX_POINT ( 'NONE', #140 ) ;
#200 = EDGE_CURVE ( 'NONE', #199, #120, #73, .T. ) ;
#201 = ORIENTED_EDGE ( 'NONE', *, *, #211, .T. ) ;
#202 = APPLICATION_CONTEXT ( 'configuration controlled 3d designs of mechanical parts and assemblies' ) ;
#203 = CARTESIAN_POINT ( 'NONE',  ( 2.500000000000000000, 3.061616997868383141E-16, 103.0000000000000142 ) ) ;
#204 = EDGE_CURVE ( 'NONE', #42, #186, #38, .T. ) ;
#205 = DIRECTION ( 'NONE',  ( 1.000000000000000000, 0.000000000000000000, 0.000000000000000000 ) ) ;
#206 = AXIS2_PLACEMENT_3D ( 'NONE', #157, #71, #87 ) ;
#207 = CARTESIAN_POINT ( 'NONE',  ( 0.000000000000000000, 0.000000000000000000, 103.0000000000000142 ) ) ;
#208 = CARTESIAN_POINT ( 'NONE',  ( 0.000000000000000000, 0.000000000000000000, 3.000000000000000000 ) ) ;
#209 = AXIS2_PLACEMENT_3D ( 'NONE', #103, #55, #180 ) ;
#210 = PRODUCT ( '39ff', '39ff', '', ( #75 ) ) ;
#211 = EDGE_CURVE ( 'NONE', #199, #31, #34, .T. ) ;
#212 = EDGE_CURVE ( 'NONE', #120, #199, #127, .T. ) ;
#213 = VECTOR ( 'NONE', #246, 1000.000000000000000 ) ;
#214 = PERSON_AND_ORGANIZATION ( #243, #70 ) ;
#215 = VERTEX_POINT ( 'NONE', #12 ) ;
#216 = PERSON_AND_ORGANIZATION ( #243, #70 ) ;
#217 = CARTESIAN_POINT ( 'NONE',  ( 0.000000000000000000, 0.000000000000000000, 0.000000000000000000 ) ) ;
#218 = ORIENTED_EDGE ( 'NONE', *, *, #187, .T. ) ;
#219 = APPROVAL_DATE_TIME ( #168, #121 ) ;
#220 = ORIENTED_EDGE ( 'NONE', *, *, #212, .T. ) ;
#221 = LOCAL_TIME ( 19, 47, 39.00000000000000000, #193 ) ;
#222 = ORIENTED_EDGE ( 'NONE', *, *, #21, .T. ) ;
#223 = DIRECTION ( 'NONE',  ( 1.000000000000000000, 0.000000000000000000, 0.000000000000000000 ) ) ;
#224 = CYLINDRICAL_SURFACE ( 'NONE', #107, 5.000000000000000000 ) ;
#225 = APPROVAL ( #197, 'NEURÈENÝ' ) ;
#226 = CARTESIAN_POINT ( 'NONE',  ( 0.000000000000000000, 0.000000000000000000, 3.000000000000000000 ) ) ;
#227 = CARTESIAN_POINT ( 'NONE',  ( 0.000000000000000000, 0.000000000000000000, 103.0000000000000142 ) ) ;
#228 = ORIENTED_EDGE ( 'NONE', *, *, #82, .F. ) ;
#229 = LINE ( 'NONE', #88, #110 ) ;
#230 = LOCAL_TIME ( 19, 47, 39.00000000000000000, #192 ) ;
#231 = CC_DESIGN_PERSON_AND_ORGANIZATION_ASSIGNMENT ( #44, #94, ( #245 ) ) ;
#232 = APPROVAL_ROLE ( '' ) ;
#233 = DIRECTION ( 'NONE',  ( 0.000000000000000000, 0.000000000000000000, 1.000000000000000000 ) ) ;
#234 = APPROVAL_PERSON_ORGANIZATION ( #144, #225, #48 ) ;
#235 = CARTESIAN_POINT ( 'NONE',  ( 5.000000000000000000, 6.123233995736766282E-16, 0.000000000000000000 ) ) ;
#236 = PERSON_AND_ORGANIZATION_ROLE ( 'design_owner' ) ;
#237 = CARTESIAN_POINT ( 'NONE',  ( -2.500000000000000000, 0.000000000000000000, 103.0000000000000142 ) ) ;
#238 = AXIS2_PLACEMENT_3D ( 'NONE', #80, #240, #135 ) ;
#239 = FACE_OUTER_BOUND ( 'NONE', #66, .T. ) ;
#240 = DIRECTION ( 'NONE',  ( -0.000000000000000000, -0.000000000000000000, -1.000000000000000000 ) ) ;
#241 = CC_DESIGN_PERSON_AND_ORGANIZATION_ASSIGNMENT ( #216, #92, ( #159 ) ) ;
#242 = DIRECTION ( 'NONE',  ( 1.000000000000000000, 0.000000000000000000, -0.000000000000000000 ) ) ;
#243 = PERSON ( 'NEURÈENÝ', 'NEURÈENÝ', 'NEURÈENÝ', ('NEURÈENÝ'), ('NEURÈENÝ'), ('NEURÈENÝ') ) ;
#244 = DIRECTION ( 'NONE',  ( 1.000000000000000000, 0.000000000000000000, -0.000000000000000000 ) ) ;
#245 = PRODUCT_DEFINITION_FORMATION_WITH_SPECIFIED_SOURCE ( 'LIBOVOLNÝ', '', #210, .NOT_KNOWN. ) ;
#246 = DIRECTION ( 'NONE',  ( -0.000000000000000000, -0.000000000000000000, -1.000000000000000000 ) ) ;
#247 = CARTESIAN_POINT ( 'NONE',  ( -5.000000000000000000, 0.000000000000000000, 3.000000000000000000 ) ) ;
#248 = ADVANCED_FACE ( 'NONE', ( #86, #51 ), #104, .T. ) ;
#249 = AXIS2_PLACEMENT_3D ( 'NONE', #101, #128, #223 ) ;
#250 = CIRCLE ( 'NONE', #249, 2.500000000000000000 ) ;
#251 = LOCAL_TIME ( 19, 47, 39.00000000000000000, #3 ) ;
#252 = ADVANCED_FACE ( 'NONE', ( #13 ), #224, .T. ) ;
#253 = CIRCLE ( 'NONE', #126, 2.500000000000000000 ) ;
#254 = ORIENTED_EDGE ( 'NONE', *, *, #26, .F. ) ;
#255 = CARTESIAN_POINT ( 'NONE',  ( 0.000000000000000000, 0.000000000000000000, 0.000000000000000000 ) ) ;
ENDSEC;
END-ISO-10303-21;
