ISO-10303-21;
HEADER;
FILE_DESCRIPTION (( 'STEP AP203' ),
    '1' );
FILE_NAME ('4498.STEP',
    '2022-07-07T17:24:45',
    ( '' ),
    ( '' ),
    'SwSTEP 2.0',
    'SolidWorks 2019',
    '' );
FILE_SCHEMA (( 'CONFIG_CONTROL_DESIGN' ));
ENDSEC;

DATA;
#1 = AXIS2_PLACEMENT_3D ( 'NONE', #178, #201, #160 ) ;
#2 = CC_DESIGN_PERSON_AND_ORGANIZATION_ASSIGNMENT ( #202, #55, ( #25 ) ) ;
#3 = EDGE_LOOP ( 'NONE', ( #6, #249, #174, #5 ) ) ;
#4 = DIRECTION ( 'NONE',  ( 0.000000000000000000, 0.000000000000000000, 1.000000000000000000 ) ) ;
#5 = ORIENTED_EDGE ( 'NONE', *, *, #208, .F. ) ;
#6 = ORIENTED_EDGE ( 'NONE', *, *, #212, .F. ) ;
#7 = DIRECTION ( 'NONE',  ( 0.000000000000000000, 0.000000000000000000, 1.000000000000000000 ) ) ;
#8 = PERSON_AND_ORGANIZATION ( #79, #184 ) ;
#9 = FACE_BOUND ( 'NONE', #45, .T. ) ;
#10 = SHAPE_DEFINITION_REPRESENTATION ( #17, #236 ) ;
#11 = AXIS2_PLACEMENT_3D ( 'NONE', #108, #230, #130 ) ;
#12 = AXIS2_PLACEMENT_3D ( 'NONE', #226, #59, #112 ) ;
#13 = DIRECTION ( 'NONE',  ( -0.000000000000000000, -0.000000000000000000, -1.000000000000000000 ) ) ;
#14 = APPROVAL_DATE_TIME ( #247, #29 ) ;
#15 = CC_DESIGN_PERSON_AND_ORGANIZATION_ASSIGNMENT ( #106, #51, ( #231 ) ) ;
#16 = CARTESIAN_POINT ( 'NONE',  ( 0.000000000000000000, 0.000000000000000000, 5.000000000000000000 ) ) ;
#17 = PRODUCT_DEFINITION_SHAPE ( 'NONE', 'NONE',  #118 ) ;
#18 = VERTEX_POINT ( 'NONE', #65 ) ;
#19 = LOCAL_TIME ( 19, 24, 45.00000000000000000, #167 ) ;
#20 = ADVANCED_FACE ( 'NONE', ( #243 ), #85, .T. ) ;
#21 = DIRECTION ( 'NONE',  ( -1.000000000000000000, 0.000000000000000000, 0.000000000000000000 ) ) ;
#22 = DIRECTION ( 'NONE',  ( 1.000000000000000000, 0.000000000000000000, 0.000000000000000000 ) ) ;
#23 = VERTEX_POINT ( 'NONE', #71 ) ;
#24 = FACE_OUTER_BOUND ( 'NONE', #93, .T. ) ;
#25 = PRODUCT_DEFINITION_FORMATION_WITH_SPECIFIED_SOURCE ( 'LIBOVOLNÝ', '', #42, .NOT_KNOWN. ) ;
#26 = APPROVAL_STATUS ( 'not_yet_approved' ) ;
#27 = AXIS2_PLACEMENT_3D ( 'NONE', #224, #196, #145 ) ;
#28 = ORIENTED_EDGE ( 'NONE', *, *, #163, .T. ) ;
#29 = APPROVAL ( #126, 'NEURÈENÝ' ) ;
#30 = ORIENTED_EDGE ( 'NONE', *, *, #128, .T. ) ;
#31 = CALENDAR_DATE ( 2022, 7, 7 ) ;
#32 = PLANE ( 'NONE',  #116 ) ;
#33 =( NAMED_UNIT ( * ) SI_UNIT ( $, .STERADIAN. ) SOLID_ANGLE_UNIT ( ) );
#34 = PERSON_AND_ORGANIZATION ( #79, #184 ) ;
#35 =( NAMED_UNIT ( * ) PLANE_ANGLE_UNIT ( ) SI_UNIT ( $, .RADIAN. ) );
#36 = LOCAL_TIME ( 19, 24, 45.00000000000000000, #129 ) ;
#37 = CARTESIAN_POINT ( 'NONE',  ( -8.000000000000000000, 0.000000000000000000, 5.000000000000000000 ) ) ;
#38 = DIRECTION ( 'NONE',  ( -0.000000000000000000, -0.000000000000000000, -1.000000000000000000 ) ) ;
#39 = EDGE_CURVE ( 'NONE', #218, #140, #142, .T. ) ;
#40 = ADVANCED_FACE ( 'NONE', ( #46 ), #83, .T. ) ;
#41 = VECTOR ( 'NONE', #56, 1000.000000000000000 ) ;
#42 = PRODUCT ( '4498', '4498', '', ( #189 ) ) ;
#43 = CARTESIAN_POINT ( 'NONE',  ( 5.250000000000000000, 6.429395695523604153E-16, 130.0000000000000000 ) ) ;
#44 = DIRECTION ( 'NONE',  ( -0.000000000000000000, -0.000000000000000000, -1.000000000000000000 ) ) ;
#45 = EDGE_LOOP ( 'NONE', ( #123, #198 ) ) ;
#46 = FACE_OUTER_BOUND ( 'NONE', #92, .T. ) ;
#47 = COORDINATED_UNIVERSAL_TIME_OFFSET ( 1, 0, .AHEAD. ) ;
#48 = EDGE_CURVE ( 'NONE', #18, #216, #99, .T. ) ;
#49 = CARTESIAN_POINT ( 'NONE',  ( 0.000000000000000000, 0.000000000000000000, 130.0000000000000000 ) ) ;
#50 = CIRCLE ( 'NONE', #210, 8.000000000000000000 ) ;
#51 = PERSON_AND_ORGANIZATION_ROLE ( 'classification_officer' ) ;
#52 = CLOSED_SHELL ( 'NONE', ( #155, #20, #239, #114, #101, #40, #57 ) ) ;
#53 = VERTEX_POINT ( 'NONE', #148 ) ;
#54 = ORIENTED_EDGE ( 'NONE', *, *, #212, .T. ) ;
#55 = PERSON_AND_ORGANIZATION_ROLE ( 'creator' ) ;
#56 = DIRECTION ( 'NONE',  ( -0.000000000000000000, -0.000000000000000000, -1.000000000000000000 ) ) ;
#57 = ADVANCED_FACE ( 'NONE', ( #124 ), #32, .T. ) ;
#58 = APPROVAL_DATE_TIME ( #110, #62 ) ;
#59 = DIRECTION ( 'NONE',  ( 0.000000000000000000, 0.000000000000000000, 1.000000000000000000 ) ) ;
#60 = DIRECTION ( 'NONE',  ( -1.000000000000000000, 0.000000000000000000, 0.000000000000000000 ) ) ;
#61 = DIRECTION ( 'NONE',  ( 1.000000000000000000, 0.000000000000000000, 0.000000000000000000 ) ) ;
#62 = APPROVAL ( #26, 'NEURÈENÝ' ) ;
#63 = UNCERTAINTY_MEASURE_WITH_UNIT (LENGTH_MEASURE( 1.000000000000000082E-05 ), #134, 'distance_accuracy_value', 'NONE');
#64 = ORIENTED_EDGE ( 'NONE', *, *, #208, .T. ) ;
#65 = CARTESIAN_POINT ( 'NONE',  ( -8.000000000000000000, 0.000000000000000000, 0.000000000000000000 ) ) ;
#66 = CC_DESIGN_APPROVAL ( #29, ( #231 ) ) ;
#67 = DIRECTION ( 'NONE',  ( 1.000000000000000000, 0.000000000000000000, 0.000000000000000000 ) ) ;
#68 = CC_DESIGN_PERSON_AND_ORGANIZATION_ASSIGNMENT ( #182, #88, ( #118 ) ) ;
#69 = CARTESIAN_POINT ( 'NONE',  ( 0.000000000000000000, 0.000000000000000000, 5.000000000000000000 ) ) ;
#70 = SECURITY_CLASSIFICATION_LEVEL ( 'unclassified' ) ;
#71 = CARTESIAN_POINT ( 'NONE',  ( -8.000000000000000000, 0.000000000000000000, 5.000000000000000000 ) ) ;
#72 = VERTEX_POINT ( 'NONE', #238 ) ;
#73 = DATE_TIME_ROLE ( 'classification_date' ) ;
#74 = DIRECTION ( 'NONE',  ( 0.000000000000000000, 0.000000000000000000, 1.000000000000000000 ) ) ;
#75 = PERSON_AND_ORGANIZATION ( #79, #184 ) ;
#76 = DIRECTION ( 'NONE',  ( 0.000000000000000000, 0.000000000000000000, 1.000000000000000000 ) ) ;
#77 = PERSON_AND_ORGANIZATION_ROLE ( 'design_supplier' ) ;
#78 = APPLICATION_CONTEXT ( 'configuration controlled 3d designs of mechanical parts and assemblies' ) ;
#79 = PERSON ( 'NEURÈENÝ', 'NEURÈENÝ', 'NEURÈENÝ', ('NEURÈENÝ'), ('NEURÈENÝ'), ('NEURÈENÝ') ) ;
#80 = DIRECTION ( 'NONE',  ( 0.000000000000000000, 0.000000000000000000, 1.000000000000000000 ) ) ;
#81 = CC_DESIGN_PERSON_AND_ORGANIZATION_ASSIGNMENT ( #75, #227, ( #42 ) ) ;
#82 = ORIENTED_EDGE ( 'NONE', *, *, #233, .F. ) ;
#83 = CYLINDRICAL_SURFACE ( 'NONE', #166, 5.250000000000000000 ) ;
#84 = CARTESIAN_POINT ( 'NONE',  ( 0.000000000000000000, 0.000000000000000000, 0.000000000000000000 ) ) ;
#85 = CYLINDRICAL_SURFACE ( 'NONE', #255, 8.000000000000000000 ) ;
#86 = PERSON_AND_ORGANIZATION ( #79, #184 ) ;
#87 = DIRECTION ( 'NONE',  ( 1.000000000000000000, 0.000000000000000000, 0.000000000000000000 ) ) ;
#88 = PERSON_AND_ORGANIZATION_ROLE ( 'creator' ) ;
#89 = CYLINDRICAL_SURFACE ( 'NONE', #154, 5.250000000000000000 ) ;
#90 = DATE_AND_TIME ( #146, #254 ) ;
#91 = CARTESIAN_POINT ( 'NONE',  ( -5.250000000000000000, 0.000000000000000000, 130.0000000000000000 ) ) ;
#92 = EDGE_LOOP ( 'NONE', ( #96, #253, #64, #109 ) ) ;
#93 = EDGE_LOOP ( 'NONE', ( #28, #103 ) ) ;
#94 = CARTESIAN_POINT ( 'NONE',  ( 0.000000000000000000, 0.000000000000000000, 130.0000000000000000 ) ) ;
#95 = CC_DESIGN_SECURITY_CLASSIFICATION ( #231, ( #25 ) ) ;
#96 = ORIENTED_EDGE ( 'NONE', *, *, #97, .F. ) ;
#97 = EDGE_CURVE ( 'NONE', #127, #218, #197, .T. ) ;
#98 = APPROVAL_PERSON_ORGANIZATION ( #34, #29, #242 ) ;
#99 = CIRCLE ( 'NONE', #192, 8.000000000000000000 ) ;
#100 = EDGE_LOOP ( 'NONE', ( #30, #54 ) ) ;
#101 = ADVANCED_FACE ( 'NONE', ( #122 ), #199, .F. ) ;
#102 = PLANE ( 'NONE',  #105 ) ;
#103 = ORIENTED_EDGE ( 'NONE', *, *, #233, .T. ) ;
#104 = VECTOR ( 'NONE', #38, 1000.000000000000000 ) ;
#105 = AXIS2_PLACEMENT_3D ( 'NONE', #69, #203, #161 ) ;
#106 = PERSON_AND_ORGANIZATION ( #79, #184 ) ;
#107 = DIRECTION ( 'NONE',  ( 0.000000000000000000, 0.000000000000000000, 1.000000000000000000 ) ) ;
#108 = CARTESIAN_POINT ( 'NONE',  ( 0.000000000000000000, 0.000000000000000000, 130.0000000000000000 ) ) ;
#109 = ORIENTED_EDGE ( 'NONE', *, *, #139, .T. ) ;
#110 = DATE_AND_TIME ( #244, #194 ) ;
#111 = APPROVAL_PERSON_ORGANIZATION ( #86, #62, #225 ) ;
#112 = DIRECTION ( 'NONE',  ( 1.000000000000000000, 0.000000000000000000, 0.000000000000000000 ) ) ;
#113 = CARTESIAN_POINT ( 'NONE',  ( 0.000000000000000000, 0.000000000000000000, 5.000000000000000000 ) ) ;
#114 = ADVANCED_FACE ( 'NONE', ( #9, #24 ), #102, .T. ) ;
#115 = CARTESIAN_POINT ( 'NONE',  ( 8.000000000000000000, 9.797174393178825657E-16, 0.000000000000000000 ) ) ;
#116 = AXIS2_PLACEMENT_3D ( 'NONE', #245, #7, #141 ) ;
#117 = ORIENTED_EDGE ( 'NONE', *, *, #48, .T. ) ;
#118 = PRODUCT_DEFINITION ( 'NEZNÁMÝ', '', #25, #213 ) ;
#119 = EDGE_CURVE ( 'NONE', #216, #18, #137, .T. ) ;
#120 = APPROVAL_PERSON_ORGANIZATION ( #144, #190, #229 ) ;
#121 = DIRECTION ( 'NONE',  ( -0.000000000000000000, -0.000000000000000000, -1.000000000000000000 ) ) ;
#122 = FACE_OUTER_BOUND ( 'NONE', #195, .T. ) ;
#123 = ORIENTED_EDGE ( 'NONE', *, *, #139, .F. ) ;
#124 = FACE_OUTER_BOUND ( 'NONE', #100, .T. ) ;
#125 = CALENDAR_DATE ( 2022, 7, 7 ) ;
#126 = APPROVAL_STATUS ( 'not_yet_approved' ) ;
#127 = VERTEX_POINT ( 'NONE', #43 ) ;
#128 = EDGE_CURVE ( 'NONE', #53, #127, #149, .T. ) ;
#129 = COORDINATED_UNIVERSAL_TIME_OFFSET ( 1, 0, .AHEAD. ) ;
#130 = DIRECTION ( 'NONE',  ( 1.000000000000000000, 0.000000000000000000, 0.000000000000000000 ) ) ;
#131 = COORDINATED_UNIVERSAL_TIME_OFFSET ( 1, 0, .AHEAD. ) ;
#132 = AXIS2_PLACEMENT_3D ( 'NONE', #234, #76, #61 ) ;
#133 = LINE ( 'NONE', #232, #240 ) ;
#134 =( LENGTH_UNIT ( ) NAMED_UNIT ( * ) SI_UNIT ( .MILLI., .METRE. ) );
#135 = DIRECTION ( 'NONE',  ( 1.000000000000000000, 0.000000000000000000, 0.000000000000000000 ) ) ;
#136 = CIRCLE ( 'NONE', #12, 5.250000000000000000 ) ;
#137 = CIRCLE ( 'NONE', #27, 8.000000000000000000 ) ;
#138 = MANIFOLD_SOLID_BREP ( 'Pøidat vysunutím3', #52 ) ;
#139 = EDGE_CURVE ( 'NONE', #140, #218, #136, .T. ) ;
#140 = VERTEX_POINT ( 'NONE', #173 ) ;
#141 = DIRECTION ( 'NONE',  ( 1.000000000000000000, 0.000000000000000000, -0.000000000000000000 ) ) ;
#142 = CIRCLE ( 'NONE', #179, 5.250000000000000000 ) ;
#143 = DIRECTION ( 'NONE',  ( 0.000000000000000000, 0.000000000000000000, 1.000000000000000000 ) ) ;
#144 = PERSON_AND_ORGANIZATION ( #79, #184 ) ;
#145 = DIRECTION ( 'NONE',  ( 1.000000000000000000, 0.000000000000000000, 0.000000000000000000 ) ) ;
#146 = CALENDAR_DATE ( 2022, 7, 7 ) ;
#147 = CC_DESIGN_PERSON_AND_ORGANIZATION_ASSIGNMENT ( #8, #77, ( #25 ) ) ;
#148 = CARTESIAN_POINT ( 'NONE',  ( -5.250000000000000000, 0.000000000000000000, 130.0000000000000000 ) ) ;
#149 = CIRCLE ( 'NONE', #246, 5.250000000000000000 ) ;
#150 = APPLICATION_PROTOCOL_DEFINITION ( 'international standard', 'config_control_design', 1994, #78 ) ;
#151 = LINE ( 'NONE', #91, #41 ) ;
#152 = DATE_AND_TIME ( #200, #235 ) ;
#153 = CARTESIAN_POINT ( 'NONE',  ( 5.250000000000000000, 6.429395695523604153E-16, 5.000000000000000000 ) ) ;
#154 = AXIS2_PLACEMENT_3D ( 'NONE', #94, #204, #60 ) ;
#155 = ADVANCED_FACE ( 'NONE', ( #185 ), #89, .T. ) ;
#156 = CC_DESIGN_APPROVAL ( #62, ( #118 ) ) ;
#157 = EDGE_LOOP ( 'NONE', ( #177, #186, #211, #117 ) ) ;
#158 = CARTESIAN_POINT ( 'NONE',  ( 0.000000000000000000, 0.000000000000000000, 130.0000000000000000 ) ) ;
#159 = ORIENTED_EDGE ( 'NONE', *, *, #119, .F. ) ;
#160 = DIRECTION ( 'NONE',  ( 1.000000000000000000, 0.000000000000000000, -0.000000000000000000 ) ) ;
#161 = DIRECTION ( 'NONE',  ( 1.000000000000000000, 0.000000000000000000, -0.000000000000000000 ) ) ;
#162 = APPROVAL_DATE_TIME ( #90, #190 ) ;
#163 = EDGE_CURVE ( 'NONE', #23, #72, #50, .T. ) ;
#164 = DIRECTION ( 'NONE',  ( -0.000000000000000000, -0.000000000000000000, -1.000000000000000000 ) ) ;
#165 = COORDINATED_UNIVERSAL_TIME_OFFSET ( 1, 0, .AHEAD. ) ;
#166 = AXIS2_PLACEMENT_3D ( 'NONE', #158, #121, #220 ) ;
#167 = COORDINATED_UNIVERSAL_TIME_OFFSET ( 1, 0, .AHEAD. ) ;
#168 = PRODUCT_RELATED_PRODUCT_CATEGORY ( 'detail', '', ( #42 ) ) ;
#169 = LINE ( 'NONE', #37, #104 ) ;
#170 = ORIENTED_EDGE ( 'NONE', *, *, #119, .T. ) ;
#171 = CARTESIAN_POINT ( 'NONE',  ( 0.000000000000000000, 0.000000000000000000, 5.000000000000000000 ) ) ;
#172 = CC_DESIGN_APPROVAL ( #190, ( #25 ) ) ;
#173 = CARTESIAN_POINT ( 'NONE',  ( -5.250000000000000000, 0.000000000000000000, 5.000000000000000000 ) ) ;
#174 = ORIENTED_EDGE ( 'NONE', *, *, #39, .T. ) ;
#175 =( GEOMETRIC_REPRESENTATION_CONTEXT ( 3 ) GLOBAL_UNCERTAINTY_ASSIGNED_CONTEXT ( ( #63 ) ) GLOBAL_UNIT_ASSIGNED_CONTEXT ( ( #134, #35, #33 ) ) REPRESENTATION_CONTEXT ( 'NONE', 'WORKASPACE' ) );
#176 = CARTESIAN_POINT ( 'NONE',  ( 5.250000000000000000, 6.429395695523604153E-16, 130.0000000000000000 ) ) ;
#177 = ORIENTED_EDGE ( 'NONE', *, *, #221, .F. ) ;
#178 = CARTESIAN_POINT ( 'NONE',  ( 0.000000000000000000, 0.000000000000000000, 0.000000000000000000 ) ) ;
#179 = AXIS2_PLACEMENT_3D ( 'NONE', #181, #4, #67 ) ;
#180 = DATE_AND_TIME ( #125, #19 ) ;
#181 = CARTESIAN_POINT ( 'NONE',  ( 0.000000000000000000, 0.000000000000000000, 5.000000000000000000 ) ) ;
#182 = PERSON_AND_ORGANIZATION ( #79, #184 ) ;
#183 = EDGE_LOOP ( 'NONE', ( #82, #250, #170, #241 ) ) ;
#184 = ORGANIZATION ( 'NEURÈENÝ', 'NEURÈENÝ', '' ) ;
#185 = FACE_OUTER_BOUND ( 'NONE', #3, .T. ) ;
#186 = ORIENTED_EDGE ( 'NONE', *, *, #163, .F. ) ;
#187 = CYLINDRICAL_SURFACE ( 'NONE', #217, 8.000000000000000000 ) ;
#188 = ORIENTED_EDGE ( 'NONE', *, *, #48, .F. ) ;
#189 = MECHANICAL_CONTEXT ( 'NONE', #219, 'mechanical' ) ;
#190 = APPROVAL ( #223, 'NEURÈENÝ' ) ;
#191 = CC_DESIGN_DATE_AND_TIME_ASSIGNMENT ( #180, #73, ( #231 ) ) ;
#192 = AXIS2_PLACEMENT_3D ( 'NONE', #84, #143, #22 ) ;
#193 = EDGE_CURVE ( 'NONE', #23, #18, #169, .T. ) ;
#194 = LOCAL_TIME ( 19, 24, 45.00000000000000000, #47 ) ;
#195 = EDGE_LOOP ( 'NONE', ( #188, #159 ) ) ;
#196 = DIRECTION ( 'NONE',  ( 0.000000000000000000, 0.000000000000000000, 1.000000000000000000 ) ) ;
#197 = LINE ( 'NONE', #176, #215 ) ;
#198 = ORIENTED_EDGE ( 'NONE', *, *, #39, .F. ) ;
#199 = PLANE ( 'NONE',  #1 ) ;
#200 = CALENDAR_DATE ( 2022, 7, 7 ) ;
#201 = DIRECTION ( 'NONE',  ( 0.000000000000000000, 0.000000000000000000, 1.000000000000000000 ) ) ;
#202 = PERSON_AND_ORGANIZATION ( #79, #184 ) ;
#203 = DIRECTION ( 'NONE',  ( 0.000000000000000000, 0.000000000000000000, 1.000000000000000000 ) ) ;
#204 = DIRECTION ( 'NONE',  ( -0.000000000000000000, -0.000000000000000000, -1.000000000000000000 ) ) ;
#205 = DATE_TIME_ROLE ( 'creation_date' ) ;
#206 = AXIS2_PLACEMENT_3D ( 'NONE', #113, #80, #207 ) ;
#207 = DIRECTION ( 'NONE',  ( 1.000000000000000000, 0.000000000000000000, 0.000000000000000000 ) ) ;
#208 = EDGE_CURVE ( 'NONE', #53, #140, #151, .T. ) ;
#209 = APPLICATION_PROTOCOL_DEFINITION ( 'international standard', 'config_control_design', 1994, #219 ) ;
#210 = AXIS2_PLACEMENT_3D ( 'NONE', #171, #74, #135 ) ;
#211 = ORIENTED_EDGE ( 'NONE', *, *, #193, .T. ) ;
#212 = EDGE_CURVE ( 'NONE', #127, #53, #214, .T. ) ;
#213 = DESIGN_CONTEXT ( 'detailed design', #78, 'design' ) ;
#214 = CIRCLE ( 'NONE', #11, 5.250000000000000000 ) ;
#215 = VECTOR ( 'NONE', #44, 1000.000000000000000 ) ;
#216 = VERTEX_POINT ( 'NONE', #115 ) ;
#217 = AXIS2_PLACEMENT_3D ( 'NONE', #16, #251, #228 ) ;
#218 = VERTEX_POINT ( 'NONE', #153 ) ;
#219 = APPLICATION_CONTEXT ( 'configuration controlled 3d designs of mechanical parts and assemblies' ) ;
#220 = DIRECTION ( 'NONE',  ( -1.000000000000000000, 0.000000000000000000, 0.000000000000000000 ) ) ;
#221 = EDGE_CURVE ( 'NONE', #72, #216, #133, .T. ) ;
#222 = CARTESIAN_POINT ( 'NONE',  ( 0.000000000000000000, 0.000000000000000000, 5.000000000000000000 ) ) ;
#223 = APPROVAL_STATUS ( 'not_yet_approved' ) ;
#224 = CARTESIAN_POINT ( 'NONE',  ( 0.000000000000000000, 0.000000000000000000, 0.000000000000000000 ) ) ;
#225 = APPROVAL_ROLE ( '' ) ;
#226 = CARTESIAN_POINT ( 'NONE',  ( 0.000000000000000000, 0.000000000000000000, 5.000000000000000000 ) ) ;
#227 = PERSON_AND_ORGANIZATION_ROLE ( 'design_owner' ) ;
#228 = DIRECTION ( 'NONE',  ( -1.000000000000000000, 0.000000000000000000, 0.000000000000000000 ) ) ;
#229 = APPROVAL_ROLE ( '' ) ;
#230 = DIRECTION ( 'NONE',  ( 0.000000000000000000, 0.000000000000000000, 1.000000000000000000 ) ) ;
#231 = SECURITY_CLASSIFICATION ( '', '', #70 ) ;
#232 = CARTESIAN_POINT ( 'NONE',  ( 8.000000000000000000, 9.797174393178825657E-16, 5.000000000000000000 ) ) ;
#233 = EDGE_CURVE ( 'NONE', #72, #23, #252, .T. ) ;
#234 = CARTESIAN_POINT ( 'NONE',  ( 0.000000000000000000, 0.000000000000000000, 0.000000000000000000 ) ) ;
#235 = LOCAL_TIME ( 19, 24, 45.00000000000000000, #131 ) ;
#236 = ADVANCED_BREP_SHAPE_REPRESENTATION ( '4498', ( #138, #132 ), #175 ) ;
#237 = CC_DESIGN_DATE_AND_TIME_ASSIGNMENT ( #152, #205, ( #118 ) ) ;
#238 = CARTESIAN_POINT ( 'NONE',  ( 8.000000000000000000, 9.797174393178825657E-16, 5.000000000000000000 ) ) ;
#239 = ADVANCED_FACE ( 'NONE', ( #248 ), #187, .T. ) ;
#240 = VECTOR ( 'NONE', #13, 1000.000000000000000 ) ;
#241 = ORIENTED_EDGE ( 'NONE', *, *, #193, .F. ) ;
#242 = APPROVAL_ROLE ( '' ) ;
#243 = FACE_OUTER_BOUND ( 'NONE', #183, .T. ) ;
#244 = CALENDAR_DATE ( 2022, 7, 7 ) ;
#245 = CARTESIAN_POINT ( 'NONE',  ( 0.000000000000000000, 0.000000000000000000, 130.0000000000000000 ) ) ;
#246 = AXIS2_PLACEMENT_3D ( 'NONE', #49, #107, #87 ) ;
#247 = DATE_AND_TIME ( #31, #36 ) ;
#248 = FACE_OUTER_BOUND ( 'NONE', #157, .T. ) ;
#249 = ORIENTED_EDGE ( 'NONE', *, *, #97, .T. ) ;
#250 = ORIENTED_EDGE ( 'NONE', *, *, #221, .T. ) ;
#251 = DIRECTION ( 'NONE',  ( -0.000000000000000000, -0.000000000000000000, -1.000000000000000000 ) ) ;
#252 = CIRCLE ( 'NONE', #206, 8.000000000000000000 ) ;
#253 = ORIENTED_EDGE ( 'NONE', *, *, #128, .F. ) ;
#254 = LOCAL_TIME ( 19, 24, 45.00000000000000000, #165 ) ;
#255 = AXIS2_PLACEMENT_3D ( 'NONE', #222, #164, #21 ) ;
ENDSEC;
END-ISO-10303-21;
