ISO-10303-21;
HEADER;
FILE_DESCRIPTION (( 'STEP AP203' ),
    '1' );
FILE_NAME ('6d9e.STEP',
    '2022-07-07T17:28:59',
    ( '' ),
    ( '' ),
    'SwSTEP 2.0',
    'SolidWorks 2019',
    '' );
FILE_SCHEMA (( 'CONFIG_CONTROL_DESIGN' ));
ENDSEC;

DATA;
#1 = CARTESIAN_POINT ( 'NONE',  ( 0.000000000000000000, 0.000000000000000000, 0.000000000000000000 ) ) ;
#2 = PERSON_AND_ORGANIZATION_ROLE ( 'creator' ) ;
#3 = ORIENTED_EDGE ( 'NONE', *, *, #196, .T. ) ;
#4 = DATE_AND_TIME ( #187, #115 ) ;
#5 = EDGE_CURVE ( 'NONE', #129, #242, #238, .T. ) ;
#6 = EDGE_LOOP ( 'NONE', ( #3, #206 ) ) ;
#7 = CARTESIAN_POINT ( 'NONE',  ( 0.000000000000000000, 0.000000000000000000, 5.000000000000000000 ) ) ;
#8 = CC_DESIGN_PERSON_AND_ORGANIZATION_ASSIGNMENT ( #141, #66, ( #157 ) ) ;
#9 = CARTESIAN_POINT ( 'NONE',  ( 7.000000000000000000, 8.572527594031473190E-16, 5.000000000000000000 ) ) ;
#10 = ORIENTED_EDGE ( 'NONE', *, *, #145, .T. ) ;
#11 = DIRECTION ( 'NONE',  ( -0.000000000000000000, -0.000000000000000000, -1.000000000000000000 ) ) ;
#12 = CARTESIAN_POINT ( 'NONE',  ( 4.500000000000000000, 5.510910596163088569E-16, 165.0000000000000000 ) ) ;
#13 = AXIS2_PLACEMENT_3D ( 'NONE', #15, #138, #161 ) ;
#14 = PRODUCT_DEFINITION ( 'NEZNÁMÝ', '', #60, #123 ) ;
#15 = CARTESIAN_POINT ( 'NONE',  ( 0.000000000000000000, 0.000000000000000000, 5.000000000000000000 ) ) ;
#16 = ORIENTED_EDGE ( 'NONE', *, *, #95, .F. ) ;
#17 = CC_DESIGN_APPROVAL ( #131, ( #14 ) ) ;
#18 = CIRCLE ( 'NONE', #93, 7.000000000000000000 ) ;
#19 = DIRECTION ( 'NONE',  ( -1.000000000000000000, 0.000000000000000000, 0.000000000000000000 ) ) ;
#20 = PERSON_AND_ORGANIZATION ( #84, #180 ) ;
#21 = APPROVAL_STATUS ( 'not_yet_approved' ) ;
#22 = ADVANCED_FACE ( 'NONE', ( #72 ), #67, .T. ) ;
#23 = APPROVAL_PERSON_ORGANIZATION ( #202, #160, #61 ) ;
#24 = ORIENTED_EDGE ( 'NONE', *, *, #184, .F. ) ;
#25 = DATE_AND_TIME ( #101, #96 ) ;
#26 = FACE_OUTER_BOUND ( 'NONE', #150, .T. ) ;
#27 = CC_DESIGN_DATE_AND_TIME_ASSIGNMENT ( #149, #147, ( #157 ) ) ;
#28 = ORIENTED_EDGE ( 'NONE', *, *, #184, .T. ) ;
#29 = CIRCLE ( 'NONE', #91, 7.000000000000000000 ) ;
#30 = CYLINDRICAL_SURFACE ( 'NONE', #41, 4.500000000000000000 ) ;
#31 = CARTESIAN_POINT ( 'NONE',  ( 4.500000000000000000, 5.510910596163088569E-16, 5.000000000000000000 ) ) ;
#32 =( NAMED_UNIT ( * ) PLANE_ANGLE_UNIT ( ) SI_UNIT ( $, .RADIAN. ) );
#33 = EDGE_CURVE ( 'NONE', #220, #85, #175, .T. ) ;
#34 = LINE ( 'NONE', #12, #106 ) ;
#35 = CC_DESIGN_SECURITY_CLASSIFICATION ( #157, ( #60 ) ) ;
#36 = UNCERTAINTY_MEASURE_WITH_UNIT (LENGTH_MEASURE( 1.000000000000000082E-05 ), #213, 'distance_accuracy_value', 'NONE');
#37 = CARTESIAN_POINT ( 'NONE',  ( 0.000000000000000000, 0.000000000000000000, 165.0000000000000000 ) ) ;
#38 = DIRECTION ( 'NONE',  ( 0.000000000000000000, 0.000000000000000000, 1.000000000000000000 ) ) ;
#39 = ORIENTED_EDGE ( 'NONE', *, *, #103, .F. ) ;
#40 = PERSON_AND_ORGANIZATION ( #84, #180 ) ;
#41 = AXIS2_PLACEMENT_3D ( 'NONE', #108, #211, #68 ) ;
#42 = ORIENTED_EDGE ( 'NONE', *, *, #196, .F. ) ;
#43 = APPROVAL_DATE_TIME ( #4, #160 ) ;
#44 = PLANE ( 'NONE',  #162 ) ;
#45 = MANIFOLD_SOLID_BREP ( 'Pøidat vysunutím3', #76 ) ;
#46 = VERTEX_POINT ( 'NONE', #225 ) ;
#47 = DIRECTION ( 'NONE',  ( -0.000000000000000000, -0.000000000000000000, -1.000000000000000000 ) ) ;
#48 = CARTESIAN_POINT ( 'NONE',  ( 0.000000000000000000, 0.000000000000000000, 5.000000000000000000 ) ) ;
#49 = CARTESIAN_POINT ( 'NONE',  ( 0.000000000000000000, 0.000000000000000000, 0.000000000000000000 ) ) ;
#50 = DIRECTION ( 'NONE',  ( 1.000000000000000000, 0.000000000000000000, 0.000000000000000000 ) ) ;
#51 = CARTESIAN_POINT ( 'NONE',  ( 0.000000000000000000, 0.000000000000000000, 5.000000000000000000 ) ) ;
#52 = ADVANCED_FACE ( 'NONE', ( #172, #26 ), #44, .T. ) ;
#53 = DIRECTION ( 'NONE',  ( 0.000000000000000000, 0.000000000000000000, 1.000000000000000000 ) ) ;
#54 = PRODUCT_DEFINITION_SHAPE ( 'NONE', 'NONE',  #14 ) ;
#55 = DIRECTION ( 'NONE',  ( 1.000000000000000000, 0.000000000000000000, 0.000000000000000000 ) ) ;
#56 = ADVANCED_FACE ( 'NONE', ( #210 ), #30, .T. ) ;
#57 = AXIS2_PLACEMENT_3D ( 'NONE', #51, #135, #19 ) ;
#58 = PRODUCT_RELATED_PRODUCT_CATEGORY ( 'detail', '', ( #163 ) ) ;
#59 = DATE_AND_TIME ( #222, #198 ) ;
#60 = PRODUCT_DEFINITION_FORMATION_WITH_SPECIFIED_SOURCE ( 'LIBOVOLNÝ', '', #163, .NOT_KNOWN. ) ;
#61 = APPROVAL_ROLE ( '' ) ;
#62 = VERTEX_POINT ( 'NONE', #31 ) ;
#63 = VECTOR ( 'NONE', #234, 1000.000000000000000 ) ;
#64 = COORDINATED_UNIVERSAL_TIME_OFFSET ( 1, 0, .AHEAD. ) ;
#65 = ORIENTED_EDGE ( 'NONE', *, *, #79, .T. ) ;
#66 = PERSON_AND_ORGANIZATION_ROLE ( 'classification_officer' ) ;
#67 = CYLINDRICAL_SURFACE ( 'NONE', #119, 7.000000000000000000 ) ;
#68 = DIRECTION ( 'NONE',  ( -1.000000000000000000, 0.000000000000000000, 0.000000000000000000 ) ) ;
#69 = APPLICATION_CONTEXT ( 'configuration controlled 3d designs of mechanical parts and assemblies' ) ;
#70 = APPROVAL_ROLE ( '' ) ;
#71 = DIRECTION ( 'NONE',  ( 1.000000000000000000, 0.000000000000000000, -0.000000000000000000 ) ) ;
#72 = FACE_OUTER_BOUND ( 'NONE', #148, .T. ) ;
#73 = FACE_OUTER_BOUND ( 'NONE', #164, .T. ) ;
#74 = CC_DESIGN_DATE_AND_TIME_ASSIGNMENT ( #59, #174, ( #14 ) ) ;
#75 = PLANE ( 'NONE',  #244 ) ;
#76 = CLOSED_SHELL ( 'NONE', ( #77, #22, #125, #52, #235, #56, #177 ) ) ;
#77 = ADVANCED_FACE ( 'NONE', ( #109 ), #192, .T. ) ;
#78 = ORIENTED_EDGE ( 'NONE', *, *, #241, .F. ) ;
#79 = EDGE_CURVE ( 'NONE', #46, #62, #219, .T. ) ;
#80 = CARTESIAN_POINT ( 'NONE',  ( 0.000000000000000000, 0.000000000000000000, 5.000000000000000000 ) ) ;
#81 = APPROVAL_DATE_TIME ( #25, #131 ) ;
#82 = VERTEX_POINT ( 'NONE', #151 ) ;
#83 = COORDINATED_UNIVERSAL_TIME_OFFSET ( 1, 0, .AHEAD. ) ;
#84 = PERSON ( 'NEURÈENÝ', 'NEURÈENÝ', 'NEURÈENÝ', ('NEURÈENÝ'), ('NEURÈENÝ'), ('NEURÈENÝ') ) ;
#85 = VERTEX_POINT ( 'NONE', #230 ) ;
#86 = APPROVAL_ROLE ( '' ) ;
#87 = ORIENTED_EDGE ( 'NONE', *, *, #193, .F. ) ;
#88 = DIRECTION ( 'NONE',  ( -1.000000000000000000, 0.000000000000000000, 0.000000000000000000 ) ) ;
#89 = PERSON_AND_ORGANIZATION ( #84, #180 ) ;
#90 = EDGE_LOOP ( 'NONE', ( #16, #42, #188, #65 ) ) ;
#91 = AXIS2_PLACEMENT_3D ( 'NONE', #80, #237, #55 ) ;
#92 = DIRECTION ( 'NONE',  ( 1.000000000000000000, 0.000000000000000000, 0.000000000000000000 ) ) ;
#93 = AXIS2_PLACEMENT_3D ( 'NONE', #1, #38, #118 ) ;
#94 = CARTESIAN_POINT ( 'NONE',  ( -4.500000000000000000, 0.000000000000000000, 165.0000000000000000 ) ) ;
#95 = EDGE_CURVE ( 'NONE', #129, #62, #34, .T. ) ;
#96 = LOCAL_TIME ( 19, 28, 59.00000000000000000, #205 ) ;
#97 = VECTOR ( 'NONE', #214, 1000.000000000000000 ) ;
#98 = DIRECTION ( 'NONE',  ( 1.000000000000000000, 0.000000000000000000, -0.000000000000000000 ) ) ;
#99 = CC_DESIGN_APPROVAL ( #160, ( #157 ) ) ;
#100 = APPLICATION_PROTOCOL_DEFINITION ( 'international standard', 'config_control_design', 1994, #208 ) ;
#101 = CALENDAR_DATE ( 2022, 7, 7 ) ;
#102 = ORIENTED_EDGE ( 'NONE', *, *, #5, .F. ) ;
#103 = EDGE_CURVE ( 'NONE', #245, #220, #113, .T. ) ;
#104 = DIRECTION ( 'NONE',  ( 0.000000000000000000, 0.000000000000000000, 1.000000000000000000 ) ) ;
#105 = ORIENTED_EDGE ( 'NONE', *, *, #117, .F. ) ;
#106 = VECTOR ( 'NONE', #231, 1000.000000000000000 ) ;
#107 = PERSON_AND_ORGANIZATION_ROLE ( 'design_supplier' ) ;
#108 = CARTESIAN_POINT ( 'NONE',  ( 0.000000000000000000, 0.000000000000000000, 165.0000000000000000 ) ) ;
#109 = FACE_OUTER_BOUND ( 'NONE', #168, .T. ) ;
#110 = APPROVAL ( #248, 'NEURÈENÝ' ) ;
#111 = CC_DESIGN_APPROVAL ( #110, ( #60 ) ) ;
#112 =( GEOMETRIC_REPRESENTATION_CONTEXT ( 3 ) GLOBAL_UNCERTAINTY_ASSIGNED_CONTEXT ( ( #36 ) ) GLOBAL_UNIT_ASSIGNED_CONTEXT ( ( #213, #32, #176 ) ) REPRESENTATION_CONTEXT ( 'NONE', 'WORKASPACE' ) );
#113 = CIRCLE ( 'NONE', #201, 7.000000000000000000 ) ;
#114 = CARTESIAN_POINT ( 'NONE',  ( 0.000000000000000000, 0.000000000000000000, 5.000000000000000000 ) ) ;
#115 = LOCAL_TIME ( 19, 28, 59.00000000000000000, #64 ) ;
#116 = DIRECTION ( 'NONE',  ( 1.000000000000000000, 0.000000000000000000, 0.000000000000000000 ) ) ;
#117 = EDGE_CURVE ( 'NONE', #245, #82, #178, .T. ) ;
#118 = DIRECTION ( 'NONE',  ( 1.000000000000000000, 0.000000000000000000, 0.000000000000000000 ) ) ;
#119 = AXIS2_PLACEMENT_3D ( 'NONE', #7, #47, #233 ) ;
#120 = ORIENTED_EDGE ( 'NONE', *, *, #79, .F. ) ;
#121 = PERSON_AND_ORGANIZATION ( #84, #180 ) ;
#122 = AXIS2_PLACEMENT_3D ( 'NONE', #48, #130, #247 ) ;
#123 = DESIGN_CONTEXT ( 'detailed design', #208, 'design' ) ;
#124 = PERSON_AND_ORGANIZATION_ROLE ( 'creator' ) ;
#125 = ADVANCED_FACE ( 'NONE', ( #73 ), #159, .T. ) ;
#126 = ORIENTED_EDGE ( 'NONE', *, *, #193, .T. ) ;
#127 = SHAPE_DEFINITION_REPRESENTATION ( #54, #137 ) ;
#128 = DIRECTION ( 'NONE',  ( 1.000000000000000000, 0.000000000000000000, -0.000000000000000000 ) ) ;
#129 = VERTEX_POINT ( 'NONE', #165 ) ;
#130 = DIRECTION ( 'NONE',  ( 0.000000000000000000, 0.000000000000000000, 1.000000000000000000 ) ) ;
#131 = APPROVAL ( #21, 'NEURÈENÝ' ) ;
#132 = AXIS2_PLACEMENT_3D ( 'NONE', #229, #104, #250 ) ;
#133 = DIRECTION ( 'NONE',  ( 0.000000000000000000, 0.000000000000000000, 1.000000000000000000 ) ) ;
#134 = DIRECTION ( 'NONE',  ( 0.000000000000000000, 0.000000000000000000, 1.000000000000000000 ) ) ;
#135 = DIRECTION ( 'NONE',  ( -0.000000000000000000, -0.000000000000000000, -1.000000000000000000 ) ) ;
#136 = CIRCLE ( 'NONE', #170, 7.000000000000000000 ) ;
#137 = ADVANCED_BREP_SHAPE_REPRESENTATION ( '6d9e', ( #45, #143 ), #112 ) ;
#138 = DIRECTION ( 'NONE',  ( 0.000000000000000000, 0.000000000000000000, 1.000000000000000000 ) ) ;
#139 = VECTOR ( 'NONE', #155, 1000.000000000000000 ) ;
#140 = FACE_OUTER_BOUND ( 'NONE', #6, .T. ) ;
#141 = PERSON_AND_ORGANIZATION ( #84, #180 ) ;
#142 = APPROVAL_STATUS ( 'not_yet_approved' ) ;
#143 = AXIS2_PLACEMENT_3D ( 'NONE', #156, #249, #221 ) ;
#144 = CIRCLE ( 'NONE', #13, 4.500000000000000000 ) ;
#145 = EDGE_CURVE ( 'NONE', #220, #245, #29, .T. ) ;
#146 = ORIENTED_EDGE ( 'NONE', *, *, #117, .T. ) ;
#147 = DATE_TIME_ROLE ( 'classification_date' ) ;
#148 = EDGE_LOOP ( 'NONE', ( #39, #146, #223, #171 ) ) ;
#149 = DATE_AND_TIME ( #185, #255 ) ;
#150 = EDGE_LOOP ( 'NONE', ( #10, #190 ) ) ;
#151 = CARTESIAN_POINT ( 'NONE',  ( 7.000000000000000000, 8.572527594031473190E-16, 0.000000000000000000 ) ) ;
#152 = CC_DESIGN_PERSON_AND_ORGANIZATION_ASSIGNMENT ( #167, #124, ( #60 ) ) ;
#153 = COORDINATED_UNIVERSAL_TIME_OFFSET ( 1, 0, .AHEAD. ) ;
#154 = CARTESIAN_POINT ( 'NONE',  ( -4.500000000000000000, 0.000000000000000000, 165.0000000000000000 ) ) ;
#155 = DIRECTION ( 'NONE',  ( -0.000000000000000000, -0.000000000000000000, -1.000000000000000000 ) ) ;
#156 = CARTESIAN_POINT ( 'NONE',  ( 0.000000000000000000, 0.000000000000000000, 0.000000000000000000 ) ) ;
#157 = SECURITY_CLASSIFICATION ( '', '', #200 ) ;
#158 = CC_DESIGN_PERSON_AND_ORGANIZATION_ASSIGNMENT ( #20, #243, ( #163 ) ) ;
#159 = CYLINDRICAL_SURFACE ( 'NONE', #57, 7.000000000000000000 ) ;
#160 = APPROVAL ( #142, 'NEURÈENÝ' ) ;
#161 = DIRECTION ( 'NONE',  ( 1.000000000000000000, 0.000000000000000000, 0.000000000000000000 ) ) ;
#162 = AXIS2_PLACEMENT_3D ( 'NONE', #246, #191, #128 ) ;
#163 = PRODUCT ( '6d9e', '6d9e', '', ( #224 ) ) ;
#164 = EDGE_LOOP ( 'NONE', ( #105, #183, #207, #28 ) ) ;
#165 = CARTESIAN_POINT ( 'NONE',  ( 4.500000000000000000, 5.510910596163088569E-16, 165.0000000000000000 ) ) ;
#166 = CIRCLE ( 'NONE', #252, 4.500000000000000000 ) ;
#167 = PERSON_AND_ORGANIZATION ( #84, #180 ) ;
#168 = EDGE_LOOP ( 'NONE', ( #102, #227, #126, #186 ) ) ;
#169 = COORDINATED_UNIVERSAL_TIME_OFFSET ( 1, 0, .AHEAD. ) ;
#170 = AXIS2_PLACEMENT_3D ( 'NONE', #49, #133, #50 ) ;
#171 = ORIENTED_EDGE ( 'NONE', *, *, #33, .F. ) ;
#172 = FACE_BOUND ( 'NONE', #204, .T. ) ;
#173 = CARTESIAN_POINT ( 'NONE',  ( 0.000000000000000000, 0.000000000000000000, 165.0000000000000000 ) ) ;
#174 = DATE_TIME_ROLE ( 'creation_date' ) ;
#175 = LINE ( 'NONE', #189, #139 ) ;
#176 =( NAMED_UNIT ( * ) SI_UNIT ( $, .STERADIAN. ) SOLID_ANGLE_UNIT ( ) );
#177 = ADVANCED_FACE ( 'NONE', ( #140 ), #197, .T. ) ;
#178 = LINE ( 'NONE', #253, #97 ) ;
#179 = CARTESIAN_POINT ( 'NONE',  ( -7.000000000000000000, 0.000000000000000000, 5.000000000000000000 ) ) ;
#180 = ORGANIZATION ( 'NEURÈENÝ', 'NEURÈENÝ', '' ) ;
#181 = AXIS2_PLACEMENT_3D ( 'NONE', #173, #11, #88 ) ;
#182 = DIRECTION ( 'NONE',  ( 0.000000000000000000, 0.000000000000000000, 1.000000000000000000 ) ) ;
#183 = ORIENTED_EDGE ( 'NONE', *, *, #145, .F. ) ;
#184 = EDGE_CURVE ( 'NONE', #85, #82, #18, .T. ) ;
#185 = CALENDAR_DATE ( 2022, 7, 7 ) ;
#186 = ORIENTED_EDGE ( 'NONE', *, *, #217, .F. ) ;
#187 = CALENDAR_DATE ( 2022, 7, 7 ) ;
#188 = ORIENTED_EDGE ( 'NONE', *, *, #217, .T. ) ;
#189 = CARTESIAN_POINT ( 'NONE',  ( -7.000000000000000000, 0.000000000000000000, 5.000000000000000000 ) ) ;
#190 = ORIENTED_EDGE ( 'NONE', *, *, #103, .T. ) ;
#191 = DIRECTION ( 'NONE',  ( 0.000000000000000000, 0.000000000000000000, 1.000000000000000000 ) ) ;
#192 = CYLINDRICAL_SURFACE ( 'NONE', #181, 4.500000000000000000 ) ;
#193 = EDGE_CURVE ( 'NONE', #62, #46, #144, .T. ) ;
#194 = DIRECTION ( 'NONE',  ( 0.000000000000000000, 0.000000000000000000, 1.000000000000000000 ) ) ;
#195 = LINE ( 'NONE', #94, #63 ) ;
#196 = EDGE_CURVE ( 'NONE', #242, #129, #166, .T. ) ;
#197 = PLANE ( 'NONE',  #212 ) ;
#198 = LOCAL_TIME ( 19, 28, 59.00000000000000000, #169 ) ;
#199 = CC_DESIGN_PERSON_AND_ORGANIZATION_ASSIGNMENT ( #121, #107, ( #60 ) ) ;
#200 = SECURITY_CLASSIFICATION_LEVEL ( 'unclassified' ) ;
#201 = AXIS2_PLACEMENT_3D ( 'NONE', #114, #194, #92 ) ;
#202 = PERSON_AND_ORGANIZATION ( #84, #180 ) ;
#203 = LOCAL_TIME ( 19, 28, 59.00000000000000000, #153 ) ;
#204 = EDGE_LOOP ( 'NONE', ( #120, #87 ) ) ;
#205 = COORDINATED_UNIVERSAL_TIME_OFFSET ( 1, 0, .AHEAD. ) ;
#206 = ORIENTED_EDGE ( 'NONE', *, *, #5, .T. ) ;
#207 = ORIENTED_EDGE ( 'NONE', *, *, #33, .T. ) ;
#208 = APPLICATION_CONTEXT ( 'configuration controlled 3d designs of mechanical parts and assemblies' ) ;
#209 = DATE_AND_TIME ( #232, #203 ) ;
#210 = FACE_OUTER_BOUND ( 'NONE', #90, .T. ) ;
#211 = DIRECTION ( 'NONE',  ( -0.000000000000000000, -0.000000000000000000, -1.000000000000000000 ) ) ;
#212 = AXIS2_PLACEMENT_3D ( 'NONE', #218, #182, #98 ) ;
#213 =( LENGTH_UNIT ( ) NAMED_UNIT ( * ) SI_UNIT ( .MILLI., .METRE. ) );
#214 = DIRECTION ( 'NONE',  ( -0.000000000000000000, -0.000000000000000000, -1.000000000000000000 ) ) ;
#215 = APPROVAL_PERSON_ORGANIZATION ( #89, #131, #70 ) ;
#216 = CARTESIAN_POINT ( 'NONE',  ( 0.000000000000000000, 0.000000000000000000, 0.000000000000000000 ) ) ;
#217 = EDGE_CURVE ( 'NONE', #242, #46, #195, .T. ) ;
#218 = CARTESIAN_POINT ( 'NONE',  ( 0.000000000000000000, 0.000000000000000000, 165.0000000000000000 ) ) ;
#219 = CIRCLE ( 'NONE', #122, 4.500000000000000000 ) ;
#220 = VERTEX_POINT ( 'NONE', #179 ) ;
#221 = DIRECTION ( 'NONE',  ( 1.000000000000000000, 0.000000000000000000, 0.000000000000000000 ) ) ;
#222 = CALENDAR_DATE ( 2022, 7, 7 ) ;
#223 = ORIENTED_EDGE ( 'NONE', *, *, #241, .T. ) ;
#224 = MECHANICAL_CONTEXT ( 'NONE', #69, 'mechanical' ) ;
#225 = CARTESIAN_POINT ( 'NONE',  ( -4.500000000000000000, 0.000000000000000000, 5.000000000000000000 ) ) ;
#226 = APPROVAL_PERSON_ORGANIZATION ( #40, #110, #86 ) ;
#227 = ORIENTED_EDGE ( 'NONE', *, *, #95, .T. ) ;
#228 = APPROVAL_DATE_TIME ( #209, #110 ) ;
#229 = CARTESIAN_POINT ( 'NONE',  ( 0.000000000000000000, 0.000000000000000000, 165.0000000000000000 ) ) ;
#230 = CARTESIAN_POINT ( 'NONE',  ( -7.000000000000000000, 0.000000000000000000, 0.000000000000000000 ) ) ;
#231 = DIRECTION ( 'NONE',  ( -0.000000000000000000, -0.000000000000000000, -1.000000000000000000 ) ) ;
#232 = CALENDAR_DATE ( 2022, 7, 7 ) ;
#233 = DIRECTION ( 'NONE',  ( -1.000000000000000000, 0.000000000000000000, 0.000000000000000000 ) ) ;
#234 = DIRECTION ( 'NONE',  ( -0.000000000000000000, -0.000000000000000000, -1.000000000000000000 ) ) ;
#235 = ADVANCED_FACE ( 'NONE', ( #254 ), #75, .F. ) ;
#236 = EDGE_LOOP ( 'NONE', ( #24, #78 ) ) ;
#237 = DIRECTION ( 'NONE',  ( 0.000000000000000000, 0.000000000000000000, 1.000000000000000000 ) ) ;
#238 = CIRCLE ( 'NONE', #132, 4.500000000000000000 ) ;
#239 = APPLICATION_PROTOCOL_DEFINITION ( 'international standard', 'config_control_design', 1994, #69 ) ;
#240 = PERSON_AND_ORGANIZATION ( #84, #180 ) ;
#241 = EDGE_CURVE ( 'NONE', #82, #85, #136, .T. ) ;
#242 = VERTEX_POINT ( 'NONE', #154 ) ;
#243 = PERSON_AND_ORGANIZATION_ROLE ( 'design_owner' ) ;
#244 = AXIS2_PLACEMENT_3D ( 'NONE', #216, #134, #71 ) ;
#245 = VERTEX_POINT ( 'NONE', #9 ) ;
#246 = CARTESIAN_POINT ( 'NONE',  ( 0.000000000000000000, 0.000000000000000000, 5.000000000000000000 ) ) ;
#247 = DIRECTION ( 'NONE',  ( 1.000000000000000000, 0.000000000000000000, 0.000000000000000000 ) ) ;
#248 = APPROVAL_STATUS ( 'not_yet_approved' ) ;
#249 = DIRECTION ( 'NONE',  ( 0.000000000000000000, 0.000000000000000000, 1.000000000000000000 ) ) ;
#250 = DIRECTION ( 'NONE',  ( 1.000000000000000000, 0.000000000000000000, 0.000000000000000000 ) ) ;
#251 = CC_DESIGN_PERSON_AND_ORGANIZATION_ASSIGNMENT ( #240, #2, ( #14 ) ) ;
#252 = AXIS2_PLACEMENT_3D ( 'NONE', #37, #53, #116 ) ;
#253 = CARTESIAN_POINT ( 'NONE',  ( 7.000000000000000000, 8.572527594031473190E-16, 5.000000000000000000 ) ) ;
#254 = FACE_OUTER_BOUND ( 'NONE', #236, .T. ) ;
#255 = LOCAL_TIME ( 19, 28, 59.00000000000000000, #83 ) ;
ENDSEC;
END-ISO-10303-21;
