ISO-10303-21;
HEADER;
FILE_DESCRIPTION (( 'STEP AP203' ),
    '1' );
FILE_NAME ('975a.STEP',
    '2023-02-13T16:06:24',
    ( '' ),
    ( '' ),
    'SwSTEP 2.0',
    'SolidWorks 2019',
    '' );
FILE_SCHEMA (( 'CONFIG_CONTROL_DESIGN' ));
ENDSEC;

DATA;
#1 = VERTEX_POINT ( 'NONE', #24 ) ;
#2 = VERTEX_POINT ( 'NONE', #103 ) ;
#3 = FACE_OUTER_BOUND ( 'NONE', #127, .T. ) ;
#4 = ADVANCED_BREP_SHAPE_REPRESENTATION ( '975a', ( #128, #151 ), #56 ) ;
#5 = CALENDAR_DATE ( 2023, 13, 2 ) ;
#6 = EDGE_CURVE ( 'NONE', #99, #2, #84, .T. ) ;
#7 = APPROVAL_STATUS ( 'not_yet_approved' ) ;
#8 = CARTESIAN_POINT ( 'NONE',  ( 0.000000000000000000, 0.000000000000000000, 3.000000000000000000 ) ) ;
#9 = CYLINDRICAL_SURFACE ( 'NONE', #100, 2.250000000000000000 ) ;
#10 = EDGE_CURVE ( 'NONE', #58, #253, #167, .T. ) ;
#11 = ORGANIZATION ( 'NEURÈENÝ', 'NEURÈENÝ', '' ) ;
#12 = CARTESIAN_POINT ( 'NONE',  ( 0.000000000000000000, 0.000000000000000000, 250.0000000000000000 ) ) ;
#13 = ADVANCED_FACE ( 'NONE', ( #107, #3 ), #64, .T. ) ;
#14 = DIRECTION ( 'NONE',  ( -0.000000000000000000, -0.000000000000000000, -1.000000000000000000 ) ) ;
#15 = CYLINDRICAL_SURFACE ( 'NONE', #155, 4.000000000000000000 ) ;
#16 = CC_DESIGN_APPROVAL ( #50, ( #46 ) ) ;
#17 = APPROVAL_STATUS ( 'not_yet_approved' ) ;
#18 = APPLICATION_PROTOCOL_DEFINITION ( 'international standard', 'config_control_design', 1994, #149 ) ;
#19 = EDGE_LOOP ( 'NONE', ( #255, #161, #92, #40 ) ) ;
#20 = DATE_AND_TIME ( #193, #69 ) ;
#21 = EDGE_LOOP ( 'NONE', ( #197, #55, #26, #218 ) ) ;
#22 = LOCAL_TIME ( 17, 6, 24.00000000000000000, #162 ) ;
#23 = PERSON_AND_ORGANIZATION_ROLE ( 'design_owner' ) ;
#24 = CARTESIAN_POINT ( 'NONE',  ( 2.250000000000000000, 2.755455298081544285E-16, 3.000000000000000000 ) ) ;
#25 = ADVANCED_FACE ( 'NONE', ( #225 ), #90, .T. ) ;
#26 = ORIENTED_EDGE ( 'NONE', *, *, #6, .T. ) ;
#27 = EDGE_CURVE ( 'NONE', #126, #122, #30, .T. ) ;
#28 = DIRECTION ( 'NONE',  ( 0.000000000000000000, 0.000000000000000000, 1.000000000000000000 ) ) ;
#29 = UNCERTAINTY_MEASURE_WITH_UNIT (LENGTH_MEASURE( 1.000000000000000082E-05 ), #49, 'distance_accuracy_value', 'NONE');
#30 = LINE ( 'NONE', #45, #178 ) ;
#31 = CIRCLE ( 'NONE', #199, 2.250000000000000000 ) ;
#32 = CARTESIAN_POINT ( 'NONE',  ( 2.250000000000000000, 2.755455298081544285E-16, 250.0000000000000000 ) ) ;
#33 = PRODUCT_RELATED_PRODUCT_CATEGORY ( 'detail', '', ( #85 ) ) ;
#34 = CARTESIAN_POINT ( 'NONE',  ( 0.000000000000000000, 0.000000000000000000, 250.0000000000000000 ) ) ;
#35 = EDGE_CURVE ( 'NONE', #2, #1, #104, .T. ) ;
#36 = DIRECTION ( 'NONE',  ( 0.000000000000000000, 0.000000000000000000, 1.000000000000000000 ) ) ;
#37 = ORIENTED_EDGE ( 'NONE', *, *, #220, .T. ) ;
#38 = CARTESIAN_POINT ( 'NONE',  ( 0.000000000000000000, 0.000000000000000000, 0.000000000000000000 ) ) ;
#39 = COORDINATED_UNIVERSAL_TIME_OFFSET ( 1, 0, .AHEAD. ) ;
#40 = ORIENTED_EDGE ( 'NONE', *, *, #192, .T. ) ;
#41 = ORIENTED_EDGE ( 'NONE', *, *, #159, .T. ) ;
#42 = PERSON_AND_ORGANIZATION_ROLE ( 'classification_officer' ) ;
#43 = PLANE ( 'NONE',  #96 ) ;
#44 = APPROVAL_PERSON_ORGANIZATION ( #179, #50, #123 ) ;
#45 = CARTESIAN_POINT ( 'NONE',  ( 4.000000000000000000, 4.898587196589412829E-16, 3.000000000000000000 ) ) ;
#46 = SECURITY_CLASSIFICATION ( '', '', #240 ) ;
#47 = CALENDAR_DATE ( 2023, 13, 2 ) ;
#48 = CARTESIAN_POINT ( 'NONE',  ( 0.000000000000000000, 0.000000000000000000, 3.000000000000000000 ) ) ;
#49 =( LENGTH_UNIT ( ) NAMED_UNIT ( * ) SI_UNIT ( .MILLI., .METRE. ) );
#50 = APPROVAL ( #17, 'NEURÈENÝ' ) ;
#51 = ORIENTED_EDGE ( 'NONE', *, *, #205, .T. ) ;
#52 = CARTESIAN_POINT ( 'NONE',  ( 0.000000000000000000, 0.000000000000000000, 3.000000000000000000 ) ) ;
#53 = EDGE_CURVE ( 'NONE', #237, #1, #188, .T. ) ;
#54 = LOCAL_TIME ( 17, 6, 24.00000000000000000, #88 ) ;
#55 = ORIENTED_EDGE ( 'NONE', *, *, #205, .F. ) ;
#56 =( GEOMETRIC_REPRESENTATION_CONTEXT ( 3 ) GLOBAL_UNCERTAINTY_ASSIGNED_CONTEXT ( ( #29 ) ) GLOBAL_UNIT_ASSIGNED_CONTEXT ( ( #49, #236, #125 ) ) REPRESENTATION_CONTEXT ( 'NONE', 'WORKASPACE' ) );
#57 = CC_DESIGN_PERSON_AND_ORGANIZATION_ASSIGNMENT ( #83, #42, ( #46 ) ) ;
#58 = VERTEX_POINT ( 'NONE', #87 ) ;
#59 = APPLICATION_PROTOCOL_DEFINITION ( 'international standard', 'config_control_design', 1994, #94 ) ;
#60 = EDGE_LOOP ( 'NONE', ( #143, #194, #63, #213 ) ) ;
#61 = CC_DESIGN_APPROVAL ( #165, ( #158 ) ) ;
#62 = APPROVAL ( #75, 'NEURÈENÝ' ) ;
#63 = ORIENTED_EDGE ( 'NONE', *, *, #68, .T. ) ;
#64 = PLANE ( 'NONE',  #251 ) ;
#65 = DIRECTION ( 'NONE',  ( 1.000000000000000000, 0.000000000000000000, -0.000000000000000000 ) ) ;
#66 = DATE_AND_TIME ( #5, #97 ) ;
#67 = DIRECTION ( 'NONE',  ( 1.000000000000000000, 0.000000000000000000, 0.000000000000000000 ) ) ;
#68 = EDGE_CURVE ( 'NONE', #1, #2, #138, .T. ) ;
#69 = LOCAL_TIME ( 17, 6, 24.00000000000000000, #139 ) ;
#70 = FACE_OUTER_BOUND ( 'NONE', #21, .T. ) ;
#71 = DIRECTION ( 'NONE',  ( 0.000000000000000000, 0.000000000000000000, 1.000000000000000000 ) ) ;
#72 = DIRECTION ( 'NONE',  ( 1.000000000000000000, 0.000000000000000000, 0.000000000000000000 ) ) ;
#73 = CYLINDRICAL_SURFACE ( 'NONE', #195, 4.000000000000000000 ) ;
#74 = PERSON ( 'NEURÈENÝ', 'NEURÈENÝ', 'NEURÈENÝ', ('NEURÈENÝ'), ('NEURÈENÝ'), ('NEURÈENÝ') ) ;
#75 = APPROVAL_STATUS ( 'not_yet_approved' ) ;
#76 = DATE_AND_TIME ( #47, #54 ) ;
#77 = EDGE_LOOP ( 'NONE', ( #242, #142 ) ) ;
#78 = AXIS2_PLACEMENT_3D ( 'NONE', #8, #169, #67 ) ;
#79 = CC_DESIGN_DATE_AND_TIME_ASSIGNMENT ( #113, #91, ( #46 ) ) ;
#80 = VECTOR ( 'NONE', #106, 1000.000000000000000 ) ;
#81 = APPROVAL_DATE_TIME ( #76, #165 ) ;
#82 = EDGE_LOOP ( 'NONE', ( #51, #37 ) ) ;
#83 = PERSON_AND_ORGANIZATION ( #74, #11 ) ;
#84 = LINE ( 'NONE', #130, #80 ) ;
#85 = PRODUCT ( '975a', '975a', '', ( #214 ) ) ;
#86 = CC_DESIGN_SECURITY_CLASSIFICATION ( #46, ( #158 ) ) ;
#87 = CARTESIAN_POINT ( 'NONE',  ( -4.000000000000000000, 0.000000000000000000, 3.000000000000000000 ) ) ;
#88 = COORDINATED_UNIVERSAL_TIME_OFFSET ( 1, 0, .AHEAD. ) ;
#89 = DATE_TIME_ROLE ( 'creation_date' ) ;
#90 = PLANE ( 'NONE',  #202 ) ;
#91 = DATE_TIME_ROLE ( 'classification_date' ) ;
#92 = ORIENTED_EDGE ( 'NONE', *, *, #10, .T. ) ;
#93 = APPROVAL_PERSON_ORGANIZATION ( #141, #62, #231 ) ;
#94 = APPLICATION_CONTEXT ( 'configuration controlled 3d designs of mechanical parts and assemblies' ) ;
#95 = DIRECTION ( 'NONE',  ( -1.000000000000000000, 0.000000000000000000, 0.000000000000000000 ) ) ;
#96 = AXIS2_PLACEMENT_3D ( 'NONE', #198, #28, #105 ) ;
#97 = LOCAL_TIME ( 17, 6, 24.00000000000000000, #153 ) ;
#98 = CC_DESIGN_PERSON_AND_ORGANIZATION_ASSIGNMENT ( #217, #144, ( #158 ) ) ;
#99 = VERTEX_POINT ( 'NONE', #146 ) ;
#100 = AXIS2_PLACEMENT_3D ( 'NONE', #34, #117, #95 ) ;
#101 = AXIS2_PLACEMENT_3D ( 'NONE', #250, #154, #136 ) ;
#102 = DATE_AND_TIME ( #216, #22 ) ;
#103 = CARTESIAN_POINT ( 'NONE',  ( -2.250000000000000000, 0.000000000000000000, 3.000000000000000000 ) ) ;
#104 = CIRCLE ( 'NONE', #115, 2.250000000000000000 ) ;
#105 = DIRECTION ( 'NONE',  ( 1.000000000000000000, 0.000000000000000000, -0.000000000000000000 ) ) ;
#106 = DIRECTION ( 'NONE',  ( -0.000000000000000000, -0.000000000000000000, -1.000000000000000000 ) ) ;
#107 = FACE_BOUND ( 'NONE', #77, .T. ) ;
#108 = APPROVAL_DATE_TIME ( #102, #62 ) ;
#109 = CARTESIAN_POINT ( 'NONE',  ( -4.000000000000000000, 0.000000000000000000, 3.000000000000000000 ) ) ;
#110 = APPROVAL_PERSON_ORGANIZATION ( #187, #165, #168 ) ;
#111 = PRODUCT_DEFINITION ( 'NEZNÁMÝ', '', #158, #185 ) ;
#112 = PERSON_AND_ORGANIZATION_ROLE ( 'creator' ) ;
#113 = DATE_AND_TIME ( #196, #204 ) ;
#114 = DIRECTION ( 'NONE',  ( -0.000000000000000000, -0.000000000000000000, -1.000000000000000000 ) ) ;
#115 = AXIS2_PLACEMENT_3D ( 'NONE', #48, #132, #203 ) ;
#116 = CARTESIAN_POINT ( 'NONE',  ( 0.000000000000000000, 0.000000000000000000, 3.000000000000000000 ) ) ;
#117 = DIRECTION ( 'NONE',  ( -0.000000000000000000, -0.000000000000000000, -1.000000000000000000 ) ) ;
#118 = CARTESIAN_POINT ( 'NONE',  ( 0.000000000000000000, 0.000000000000000000, 0.000000000000000000 ) ) ;
#119 = ADVANCED_FACE ( 'NONE', ( #150 ), #43, .F. ) ;
#120 = DIRECTION ( 'NONE',  ( -0.000000000000000000, -0.000000000000000000, -1.000000000000000000 ) ) ;
#121 = ORIENTED_EDGE ( 'NONE', *, *, #192, .F. ) ;
#122 = VERTEX_POINT ( 'NONE', #200 ) ;
#123 = APPROVAL_ROLE ( '' ) ;
#124 = DIRECTION ( 'NONE',  ( 0.000000000000000000, 0.000000000000000000, 1.000000000000000000 ) ) ;
#125 =( NAMED_UNIT ( * ) SI_UNIT ( $, .STERADIAN. ) SOLID_ANGLE_UNIT ( ) );
#126 = VERTEX_POINT ( 'NONE', #166 ) ;
#127 = EDGE_LOOP ( 'NONE', ( #163, #164 ) ) ;
#128 = MANIFOLD_SOLID_BREP ( 'Pøidat vysunutím3', #234 ) ;
#129 = CC_DESIGN_PERSON_AND_ORGANIZATION_ASSIGNMENT ( #210, #207, ( #158 ) ) ;
#130 = CARTESIAN_POINT ( 'NONE',  ( -2.250000000000000000, 0.000000000000000000, 250.0000000000000000 ) ) ;
#131 = CC_DESIGN_PERSON_AND_ORGANIZATION_ASSIGNMENT ( #160, #23, ( #85 ) ) ;
#132 = DIRECTION ( 'NONE',  ( 0.000000000000000000, 0.000000000000000000, 1.000000000000000000 ) ) ;
#133 = CC_DESIGN_APPROVAL ( #62, ( #111 ) ) ;
#134 = CARTESIAN_POINT ( 'NONE',  ( -4.000000000000000000, 0.000000000000000000, 0.000000000000000000 ) ) ;
#135 = ADVANCED_FACE ( 'NONE', ( #211 ), #73, .T. ) ;
#136 = DIRECTION ( 'NONE',  ( 1.000000000000000000, 0.000000000000000000, 0.000000000000000000 ) ) ;
#137 = DIRECTION ( 'NONE',  ( 0.000000000000000000, 0.000000000000000000, 1.000000000000000000 ) ) ;
#138 = CIRCLE ( 'NONE', #78, 2.250000000000000000 ) ;
#139 = COORDINATED_UNIVERSAL_TIME_OFFSET ( 1, 0, .AHEAD. ) ;
#140 = FACE_OUTER_BOUND ( 'NONE', #60, .T. ) ;
#141 = PERSON_AND_ORGANIZATION ( #74, #11 ) ;
#142 = ORIENTED_EDGE ( 'NONE', *, *, #68, .F. ) ;
#143 = ORIENTED_EDGE ( 'NONE', *, *, #220, .F. ) ;
#144 = PERSON_AND_ORGANIZATION_ROLE ( 'design_supplier' ) ;
#145 = DIRECTION ( 'NONE',  ( 0.000000000000000000, 0.000000000000000000, 1.000000000000000000 ) ) ;
#146 = CARTESIAN_POINT ( 'NONE',  ( -2.250000000000000000, 0.000000000000000000, 250.0000000000000000 ) ) ;
#147 = CIRCLE ( 'NONE', #101, 2.250000000000000000 ) ;
#148 = CARTESIAN_POINT ( 'NONE',  ( 0.000000000000000000, 0.000000000000000000, 3.000000000000000000 ) ) ;
#149 = APPLICATION_CONTEXT ( 'configuration controlled 3d designs of mechanical parts and assemblies' ) ;
#150 = FACE_OUTER_BOUND ( 'NONE', #239, .T. ) ;
#151 = AXIS2_PLACEMENT_3D ( 'NONE', #38, #124, #233 ) ;
#152 = PERSON_AND_ORGANIZATION ( #74, #11 ) ;
#153 = COORDINATED_UNIVERSAL_TIME_OFFSET ( 1, 0, .AHEAD. ) ;
#154 = DIRECTION ( 'NONE',  ( 0.000000000000000000, 0.000000000000000000, 1.000000000000000000 ) ) ;
#155 = AXIS2_PLACEMENT_3D ( 'NONE', #206, #120, #248 ) ;
#156 = CARTESIAN_POINT ( 'NONE',  ( 2.250000000000000000, 2.755455298081544285E-16, 250.0000000000000000 ) ) ;
#157 = CARTESIAN_POINT ( 'NONE',  ( 0.000000000000000000, 0.000000000000000000, 0.000000000000000000 ) ) ;
#158 = PRODUCT_DEFINITION_FORMATION_WITH_SPECIFIED_SOURCE ( 'LIBOVOLNÝ', '', #85, .NOT_KNOWN. ) ;
#159 = EDGE_CURVE ( 'NONE', #122, #253, #241, .T. ) ;
#160 = PERSON_AND_ORGANIZATION ( #74, #11 ) ;
#161 = ORIENTED_EDGE ( 'NONE', *, *, #177, .F. ) ;
#162 = COORDINATED_UNIVERSAL_TIME_OFFSET ( 1, 0, .AHEAD. ) ;
#163 = ORIENTED_EDGE ( 'NONE', *, *, #177, .T. ) ;
#164 = ORIENTED_EDGE ( 'NONE', *, *, #238, .T. ) ;
#165 = APPROVAL ( #7, 'NEURÈENÝ' ) ;
#166 = CARTESIAN_POINT ( 'NONE',  ( 4.000000000000000000, 4.898587196589412829E-16, 3.000000000000000000 ) ) ;
#167 = LINE ( 'NONE', #109, #223 ) ;
#168 = APPROVAL_ROLE ( '' ) ;
#169 = DIRECTION ( 'NONE',  ( 0.000000000000000000, 0.000000000000000000, 1.000000000000000000 ) ) ;
#170 = DIRECTION ( 'NONE',  ( -1.000000000000000000, 0.000000000000000000, 0.000000000000000000 ) ) ;
#171 = DIRECTION ( 'NONE',  ( 0.000000000000000000, 0.000000000000000000, 1.000000000000000000 ) ) ;
#172 = AXIS2_PLACEMENT_3D ( 'NONE', #173, #114, #170 ) ;
#173 = CARTESIAN_POINT ( 'NONE',  ( 0.000000000000000000, 0.000000000000000000, 250.0000000000000000 ) ) ;
#174 = DIRECTION ( 'NONE',  ( -1.000000000000000000, 0.000000000000000000, 0.000000000000000000 ) ) ;
#175 = ADVANCED_FACE ( 'NONE', ( #70 ), #9, .T. ) ;
#176 = DIRECTION ( 'NONE',  ( 1.000000000000000000, 0.000000000000000000, 0.000000000000000000 ) ) ;
#177 = EDGE_CURVE ( 'NONE', #58, #126, #222, .T. ) ;
#178 = VECTOR ( 'NONE', #221, 1000.000000000000000 ) ;
#179 = PERSON_AND_ORGANIZATION ( #74, #11 ) ;
#180 = ORIENTED_EDGE ( 'NONE', *, *, #10, .F. ) ;
#181 = SHAPE_DEFINITION_REPRESENTATION ( #184, #4 ) ;
#182 = ADVANCED_FACE ( 'NONE', ( #232 ), #15, .T. ) ;
#183 = ORIENTED_EDGE ( 'NONE', *, *, #238, .F. ) ;
#184 = PRODUCT_DEFINITION_SHAPE ( 'NONE', 'NONE',  #111 ) ;
#185 = DESIGN_CONTEXT ( 'detailed design', #94, 'design' ) ;
#186 = DIRECTION ( 'NONE',  ( -0.000000000000000000, -0.000000000000000000, -1.000000000000000000 ) ) ;
#187 = PERSON_AND_ORGANIZATION ( #74, #11 ) ;
#188 = LINE ( 'NONE', #32, #247 ) ;
#189 = DIRECTION ( 'NONE',  ( 1.000000000000000000, 0.000000000000000000, 0.000000000000000000 ) ) ;
#190 = DIRECTION ( 'NONE',  ( 1.000000000000000000, 0.000000000000000000, 0.000000000000000000 ) ) ;
#191 = CARTESIAN_POINT ( 'NONE',  ( 0.000000000000000000, 0.000000000000000000, 3.000000000000000000 ) ) ;
#192 = EDGE_CURVE ( 'NONE', #253, #122, #224, .T. ) ;
#193 = CALENDAR_DATE ( 2023, 13, 2 ) ;
#194 = ORIENTED_EDGE ( 'NONE', *, *, #53, .T. ) ;
#195 = AXIS2_PLACEMENT_3D ( 'NONE', #191, #14, #174 ) ;
#196 = CALENDAR_DATE ( 2023, 13, 2 ) ;
#197 = ORIENTED_EDGE ( 'NONE', *, *, #53, .F. ) ;
#198 = CARTESIAN_POINT ( 'NONE',  ( 0.000000000000000000, 0.000000000000000000, 0.000000000000000000 ) ) ;
#199 = AXIS2_PLACEMENT_3D ( 'NONE', #12, #71, #72 ) ;
#200 = CARTESIAN_POINT ( 'NONE',  ( 4.000000000000000000, 4.898587196589412829E-16, 0.000000000000000000 ) ) ;
#201 = CC_DESIGN_PERSON_AND_ORGANIZATION_ASSIGNMENT ( #152, #112, ( #111 ) ) ;
#202 = AXIS2_PLACEMENT_3D ( 'NONE', #243, #145, #65 ) ;
#203 = DIRECTION ( 'NONE',  ( 1.000000000000000000, 0.000000000000000000, 0.000000000000000000 ) ) ;
#204 = LOCAL_TIME ( 17, 6, 24.00000000000000000, #39 ) ;
#205 = EDGE_CURVE ( 'NONE', #99, #237, #147, .T. ) ;
#206 = CARTESIAN_POINT ( 'NONE',  ( 0.000000000000000000, 0.000000000000000000, 3.000000000000000000 ) ) ;
#207 = PERSON_AND_ORGANIZATION_ROLE ( 'creator' ) ;
#208 = AXIS2_PLACEMENT_3D ( 'NONE', #118, #228, #176 ) ;
#209 = ADVANCED_FACE ( 'NONE', ( #140 ), #215, .T. ) ;
#210 = PERSON_AND_ORGANIZATION ( #74, #11 ) ;
#211 = FACE_OUTER_BOUND ( 'NONE', #219, .T. ) ;
#212 = AXIS2_PLACEMENT_3D ( 'NONE', #116, #137, #249 ) ;
#213 = ORIENTED_EDGE ( 'NONE', *, *, #6, .F. ) ;
#214 = MECHANICAL_CONTEXT ( 'NONE', #149, 'mechanical' ) ;
#215 = CYLINDRICAL_SURFACE ( 'NONE', #172, 2.250000000000000000 ) ;
#216 = CALENDAR_DATE ( 2023, 13, 2 ) ;
#217 = PERSON_AND_ORGANIZATION ( #74, #11 ) ;
#218 = ORIENTED_EDGE ( 'NONE', *, *, #35, .T. ) ;
#219 = EDGE_LOOP ( 'NONE', ( #183, #235, #41, #180 ) ) ;
#220 = EDGE_CURVE ( 'NONE', #237, #99, #31, .T. ) ;
#221 = DIRECTION ( 'NONE',  ( -0.000000000000000000, -0.000000000000000000, -1.000000000000000000 ) ) ;
#222 = CIRCLE ( 'NONE', #230, 4.000000000000000000 ) ;
#223 = VECTOR ( 'NONE', #245, 1000.000000000000000 ) ;
#224 = CIRCLE ( 'NONE', #208, 4.000000000000000000 ) ;
#225 = FACE_OUTER_BOUND ( 'NONE', #82, .T. ) ;
#226 = CC_DESIGN_DATE_AND_TIME_ASSIGNMENT ( #66, #89, ( #111 ) ) ;
#227 = DIRECTION ( 'NONE',  ( 1.000000000000000000, 0.000000000000000000, -0.000000000000000000 ) ) ;
#228 = DIRECTION ( 'NONE',  ( 0.000000000000000000, 0.000000000000000000, 1.000000000000000000 ) ) ;
#229 = ORIENTED_EDGE ( 'NONE', *, *, #159, .F. ) ;
#230 = AXIS2_PLACEMENT_3D ( 'NONE', #52, #171, #190 ) ;
#231 = APPROVAL_ROLE ( '' ) ;
#232 = FACE_OUTER_BOUND ( 'NONE', #19, .T. ) ;
#233 = DIRECTION ( 'NONE',  ( 1.000000000000000000, 0.000000000000000000, 0.000000000000000000 ) ) ;
#234 = CLOSED_SHELL ( 'NONE', ( #209, #135, #182, #13, #119, #175, #25 ) ) ;
#235 = ORIENTED_EDGE ( 'NONE', *, *, #27, .T. ) ;
#236 =( NAMED_UNIT ( * ) PLANE_ANGLE_UNIT ( ) SI_UNIT ( $, .RADIAN. ) );
#237 = VERTEX_POINT ( 'NONE', #156 ) ;
#238 = EDGE_CURVE ( 'NONE', #126, #58, #244, .T. ) ;
#239 = EDGE_LOOP ( 'NONE', ( #121, #229 ) ) ;
#240 = SECURITY_CLASSIFICATION_LEVEL ( 'unclassified' ) ;
#241 = CIRCLE ( 'NONE', #254, 4.000000000000000000 ) ;
#242 = ORIENTED_EDGE ( 'NONE', *, *, #35, .F. ) ;
#243 = CARTESIAN_POINT ( 'NONE',  ( 0.000000000000000000, 0.000000000000000000, 250.0000000000000000 ) ) ;
#244 = CIRCLE ( 'NONE', #212, 4.000000000000000000 ) ;
#245 = DIRECTION ( 'NONE',  ( -0.000000000000000000, -0.000000000000000000, -1.000000000000000000 ) ) ;
#246 = DIRECTION ( 'NONE',  ( 0.000000000000000000, 0.000000000000000000, 1.000000000000000000 ) ) ;
#247 = VECTOR ( 'NONE', #186, 1000.000000000000000 ) ;
#248 = DIRECTION ( 'NONE',  ( -1.000000000000000000, 0.000000000000000000, 0.000000000000000000 ) ) ;
#249 = DIRECTION ( 'NONE',  ( 1.000000000000000000, 0.000000000000000000, 0.000000000000000000 ) ) ;
#250 = CARTESIAN_POINT ( 'NONE',  ( 0.000000000000000000, 0.000000000000000000, 250.0000000000000000 ) ) ;
#251 = AXIS2_PLACEMENT_3D ( 'NONE', #148, #246, #227 ) ;
#252 = APPROVAL_DATE_TIME ( #20, #50 ) ;
#253 = VERTEX_POINT ( 'NONE', #134 ) ;
#254 = AXIS2_PLACEMENT_3D ( 'NONE', #157, #36, #189 ) ;
#255 = ORIENTED_EDGE ( 'NONE', *, *, #27, .F. ) ;
ENDSEC;
END-ISO-10303-21;
