ISO-10303-21;
HEADER;
FILE_DESCRIPTION (( 'STEP AP203' ),
    '1' );
FILE_NAME ('11f6.STEP',
    '2022-07-07T17:32:59',
    ( '' ),
    ( '' ),
    'SwSTEP 2.0',
    'SolidWorks 2019',
    '' );
FILE_SCHEMA (( 'CONFIG_CONTROL_DESIGN' ));
ENDSEC;

DATA;
#1 = APPROVAL_ROLE ( '' ) ;
#2 = EDGE_LOOP ( 'NONE', ( #240, #224 ) ) ;
#3 = EDGE_LOOP ( 'NONE', ( #203, #47, #46, #86 ) ) ;
#4 = ADVANCED_FACE ( 'NONE', ( #7, #29 ), #242, .T. ) ;
#5 = EDGE_LOOP ( 'NONE', ( #185, #208 ) ) ;
#6 = VECTOR ( 'NONE', #122, 1000.000000000000000 ) ;
#7 = FACE_BOUND ( 'NONE', #5, .T. ) ;
#8 = CARTESIAN_POINT ( 'NONE',  ( -7.000000000000000000, 0.000000000000000000, 5.000000000000000000 ) ) ;
#9 = AXIS2_PLACEMENT_3D ( 'NONE', #32, #108, #229 ) ;
#10 = CARTESIAN_POINT ( 'NONE',  ( 0.000000000000000000, 0.000000000000000000, 5.000000000000000000 ) ) ;
#11 = CARTESIAN_POINT ( 'NONE',  ( 0.000000000000000000, 0.000000000000000000, 255.0000000000000000 ) ) ;
#12 = CARTESIAN_POINT ( 'NONE',  ( 0.000000000000000000, 0.000000000000000000, 0.000000000000000000 ) ) ;
#13 = EDGE_CURVE ( 'NONE', #63, #116, #26, .T. ) ;
#14 = CARTESIAN_POINT ( 'NONE',  ( 4.000000000000000000, 4.898587196589412829E-16, 5.000000000000000000 ) ) ;
#15 = PERSON_AND_ORGANIZATION_ROLE ( 'creator' ) ;
#16 = VECTOR ( 'NONE', #131, 1000.000000000000000 ) ;
#17 = APPROVAL_DATE_TIME ( #134, #43 ) ;
#18 = CC_DESIGN_PERSON_AND_ORGANIZATION_ASSIGNMENT ( #152, #15, ( #180 ) ) ;
#19 = PLANE ( 'NONE',  #27 ) ;
#20 = APPLICATION_PROTOCOL_DEFINITION ( 'international standard', 'config_control_design', 1994, #222 ) ;
#21 = AXIS2_PLACEMENT_3D ( 'NONE', #237, #39, #114 ) ;
#22 = CIRCLE ( 'NONE', #140, 4.000000000000000000 ) ;
#23 = EDGE_LOOP ( 'NONE', ( #42, #119 ) ) ;
#24 = ADVANCED_FACE ( 'NONE', ( #245 ), #19, .F. ) ;
#25 = ORIENTED_EDGE ( 'NONE', *, *, #166, .F. ) ;
#26 = LINE ( 'NONE', #106, #6 ) ;
#27 = AXIS2_PLACEMENT_3D ( 'NONE', #66, #102, #82 ) ;
#28 = PERSON_AND_ORGANIZATION ( #95, #97 ) ;
#29 = FACE_OUTER_BOUND ( 'NONE', #23, .T. ) ;
#30 = COORDINATED_UNIVERSAL_TIME_OFFSET ( 1, 0, .AHEAD. ) ;
#31 = PRODUCT_RELATED_PRODUCT_CATEGORY ( 'detail', '', ( #163 ) ) ;
#32 = CARTESIAN_POINT ( 'NONE',  ( 0.000000000000000000, 0.000000000000000000, 5.000000000000000000 ) ) ;
#33 = DIRECTION ( 'NONE',  ( -1.000000000000000000, 0.000000000000000000, 0.000000000000000000 ) ) ;
#34 = LOCAL_TIME ( 19, 32, 59.00000000000000000, #81 ) ;
#35 = ADVANCED_FACE ( 'NONE', ( #156 ), #128, .T. ) ;
#36 = DIRECTION ( 'NONE',  ( 0.000000000000000000, 0.000000000000000000, 1.000000000000000000 ) ) ;
#37 = LINE ( 'NONE', #111, #48 ) ;
#38 = EDGE_CURVE ( 'NONE', #104, #116, #207, .T. ) ;
#39 = DIRECTION ( 'NONE',  ( 0.000000000000000000, 0.000000000000000000, 1.000000000000000000 ) ) ;
#40 = AXIS2_PLACEMENT_3D ( 'NONE', #93, #249, #248 ) ;
#41 = APPROVAL_STATUS ( 'not_yet_approved' ) ;
#42 = ORIENTED_EDGE ( 'NONE', *, *, #157, .T. ) ;
#43 = APPROVAL ( #181, 'NEURÈENÝ' ) ;
#44 = AXIS2_PLACEMENT_3D ( 'NONE', #74, #173, #55 ) ;
#45 = ORIENTED_EDGE ( 'NONE', *, *, #253, .F. ) ;
#46 = ORIENTED_EDGE ( 'NONE', *, *, #166, .T. ) ;
#47 = ORIENTED_EDGE ( 'NONE', *, *, #13, .T. ) ;
#48 = VECTOR ( 'NONE', #88, 1000.000000000000000 ) ;
#49 = PERSON_AND_ORGANIZATION ( #95, #97 ) ;
#50 = DIRECTION ( 'NONE',  ( 0.000000000000000000, 0.000000000000000000, 1.000000000000000000 ) ) ;
#51 = DIRECTION ( 'NONE',  ( -0.000000000000000000, -0.000000000000000000, -1.000000000000000000 ) ) ;
#52 = AXIS2_PLACEMENT_3D ( 'NONE', #11, #214, #171 ) ;
#53 = DIRECTION ( 'NONE',  ( -0.000000000000000000, -0.000000000000000000, -1.000000000000000000 ) ) ;
#54 = CC_DESIGN_APPROVAL ( #43, ( #180 ) ) ;
#55 = DIRECTION ( 'NONE',  ( -1.000000000000000000, 0.000000000000000000, 0.000000000000000000 ) ) ;
#56 = MANIFOLD_SOLID_BREP ( 'Pøidat vysunutím3', #167 ) ;
#57 =( NAMED_UNIT ( * ) SI_UNIT ( $, .STERADIAN. ) SOLID_ANGLE_UNIT ( ) );
#58 = CC_DESIGN_PERSON_AND_ORGANIZATION_ASSIGNMENT ( #120, #142, ( #174 ) ) ;
#59 = DATE_AND_TIME ( #177, #77 ) ;
#60 = CIRCLE ( 'NONE', #80, 4.000000000000000000 ) ;
#61 = APPROVAL_DATE_TIME ( #239, #172 ) ;
#62 = PERSON_AND_ORGANIZATION ( #95, #97 ) ;
#63 = VERTEX_POINT ( 'NONE', #110 ) ;
#64 = ORIENTED_EDGE ( 'NONE', *, *, #226, .T. ) ;
#65 = APPROVAL_DATE_TIME ( #70, #139 ) ;
#66 = CARTESIAN_POINT ( 'NONE',  ( 0.000000000000000000, 0.000000000000000000, 0.000000000000000000 ) ) ;
#67 = EDGE_CURVE ( 'NONE', #164, #186, #60, .T. ) ;
#68 = CARTESIAN_POINT ( 'NONE',  ( 4.000000000000000000, 4.898587196589412829E-16, 255.0000000000000000 ) ) ;
#69 = AXIS2_PLACEMENT_3D ( 'NONE', #94, #51, #33 ) ;
#70 = DATE_AND_TIME ( #127, #161 ) ;
#71 = DESIGN_CONTEXT ( 'detailed design', #90, 'design' ) ;
#72 = CARTESIAN_POINT ( 'NONE',  ( -4.000000000000000000, 0.000000000000000000, 5.000000000000000000 ) ) ;
#73 = EDGE_CURVE ( 'NONE', #223, #186, #147, .T. ) ;
#74 = CARTESIAN_POINT ( 'NONE',  ( 0.000000000000000000, 0.000000000000000000, 255.0000000000000000 ) ) ;
#75 = UNCERTAINTY_MEASURE_WITH_UNIT (LENGTH_MEASURE( 1.000000000000000082E-05 ), #202, 'distance_accuracy_value', 'NONE');
#76 = CYLINDRICAL_SURFACE ( 'NONE', #69, 7.000000000000000000 ) ;
#77 = LOCAL_TIME ( 19, 32, 59.00000000000000000, #96 ) ;
#78 = COORDINATED_UNIVERSAL_TIME_OFFSET ( 1, 0, .AHEAD. ) ;
#79 = CALENDAR_DATE ( 2022, 7, 7 ) ;
#80 = AXIS2_PLACEMENT_3D ( 'NONE', #209, #50, #168 ) ;
#81 = COORDINATED_UNIVERSAL_TIME_OFFSET ( 1, 0, .AHEAD. ) ;
#82 = DIRECTION ( 'NONE',  ( 1.000000000000000000, 0.000000000000000000, -0.000000000000000000 ) ) ;
#83 = ORIENTED_EDGE ( 'NONE', *, *, #243, .F. ) ;
#84 = EDGE_LOOP ( 'NONE', ( #179, #45, #199, #105 ) ) ;
#85 = CC_DESIGN_APPROVAL ( #139, ( #174 ) ) ;
#86 = ORIENTED_EDGE ( 'NONE', *, *, #115, .F. ) ;
#87 = SHAPE_DEFINITION_REPRESENTATION ( #129, #201 ) ;
#88 = DIRECTION ( 'NONE',  ( -0.000000000000000000, -0.000000000000000000, -1.000000000000000000 ) ) ;
#89 = PERSON_AND_ORGANIZATION_ROLE ( 'design_supplier' ) ;
#90 = APPLICATION_CONTEXT ( 'configuration controlled 3d designs of mechanical parts and assemblies' ) ;
#91 = DIRECTION ( 'NONE',  ( 0.000000000000000000, 0.000000000000000000, 1.000000000000000000 ) ) ;
#92 = DIRECTION ( 'NONE',  ( 1.000000000000000000, 0.000000000000000000, 0.000000000000000000 ) ) ;
#93 = CARTESIAN_POINT ( 'NONE',  ( 0.000000000000000000, 0.000000000000000000, 0.000000000000000000 ) ) ;
#94 = CARTESIAN_POINT ( 'NONE',  ( 0.000000000000000000, 0.000000000000000000, 5.000000000000000000 ) ) ;
#95 = PERSON ( 'NEURÈENÝ', 'NEURÈENÝ', 'NEURÈENÝ', ('NEURÈENÝ'), ('NEURÈENÝ'), ('NEURÈENÝ') ) ;
#96 = COORDINATED_UNIVERSAL_TIME_OFFSET ( 1, 0, .AHEAD. ) ;
#97 = ORGANIZATION ( 'NEURÈENÝ', 'NEURÈENÝ', '' ) ;
#98 = DIRECTION ( 'NONE',  ( 1.000000000000000000, 0.000000000000000000, 0.000000000000000000 ) ) ;
#99 = CARTESIAN_POINT ( 'NONE',  ( 0.000000000000000000, 0.000000000000000000, 5.000000000000000000 ) ) ;
#100 = CIRCLE ( 'NONE', #40, 7.000000000000000000 ) ;
#101 =( NAMED_UNIT ( * ) PLANE_ANGLE_UNIT ( ) SI_UNIT ( $, .RADIAN. ) );
#102 = DIRECTION ( 'NONE',  ( 0.000000000000000000, 0.000000000000000000, 1.000000000000000000 ) ) ;
#103 = APPLICATION_PROTOCOL_DEFINITION ( 'international standard', 'config_control_design', 1994, #90 ) ;
#104 = VERTEX_POINT ( 'NONE', #126 ) ;
#105 = ORIENTED_EDGE ( 'NONE', *, *, #200, .T. ) ;
#106 = CARTESIAN_POINT ( 'NONE',  ( 7.000000000000000000, 8.572527594031473190E-16, 5.000000000000000000 ) ) ;
#107 = DIRECTION ( 'NONE',  ( 0.000000000000000000, 0.000000000000000000, 1.000000000000000000 ) ) ;
#108 = DIRECTION ( 'NONE',  ( -0.000000000000000000, -0.000000000000000000, -1.000000000000000000 ) ) ;
#109 = DIRECTION ( 'NONE',  ( 0.000000000000000000, 0.000000000000000000, 1.000000000000000000 ) ) ;
#110 = CARTESIAN_POINT ( 'NONE',  ( 7.000000000000000000, 8.572527594031473190E-16, 5.000000000000000000 ) ) ;
#111 = CARTESIAN_POINT ( 'NONE',  ( 4.000000000000000000, 4.898587196589412829E-16, 255.0000000000000000 ) ) ;
#112 = CC_DESIGN_DATE_AND_TIME_ASSIGNMENT ( #144, #165, ( #174 ) ) ;
#113 = ADVANCED_FACE ( 'NONE', ( #192 ), #188, .T. ) ;
#114 = DIRECTION ( 'NONE',  ( 1.000000000000000000, 0.000000000000000000, 0.000000000000000000 ) ) ;
#115 = EDGE_CURVE ( 'NONE', #183, #104, #212, .T. ) ;
#116 = VERTEX_POINT ( 'NONE', #193 ) ;
#117 = CC_DESIGN_APPROVAL ( #172, ( #132 ) ) ;
#118 = CARTESIAN_POINT ( 'NONE',  ( 0.000000000000000000, 0.000000000000000000, 5.000000000000000000 ) ) ;
#119 = ORIENTED_EDGE ( 'NONE', *, *, #235, .T. ) ;
#120 = PERSON_AND_ORGANIZATION ( #95, #97 ) ;
#121 = VECTOR ( 'NONE', #53, 1000.000000000000000 ) ;
#122 = DIRECTION ( 'NONE',  ( -0.000000000000000000, -0.000000000000000000, -1.000000000000000000 ) ) ;
#123 = APPROVAL_STATUS ( 'not_yet_approved' ) ;
#124 = AXIS2_PLACEMENT_3D ( 'NONE', #150, #109, #175 ) ;
#125 = PERSON_AND_ORGANIZATION_ROLE ( 'creator' ) ;
#126 = CARTESIAN_POINT ( 'NONE',  ( -7.000000000000000000, 0.000000000000000000, 0.000000000000000000 ) ) ;
#127 = CALENDAR_DATE ( 2022, 7, 7 ) ;
#128 = CYLINDRICAL_SURFACE ( 'NONE', #9, 7.000000000000000000 ) ;
#129 = PRODUCT_DEFINITION_SHAPE ( 'NONE', 'NONE',  #180 ) ;
#130 = CARTESIAN_POINT ( 'NONE',  ( 0.000000000000000000, 0.000000000000000000, 255.0000000000000000 ) ) ;
#131 = DIRECTION ( 'NONE',  ( -0.000000000000000000, -0.000000000000000000, -1.000000000000000000 ) ) ;
#132 = PRODUCT_DEFINITION_FORMATION_WITH_SPECIFIED_SOURCE ( 'LIBOVOLNÝ', '', #163, .NOT_KNOWN. ) ;
#133 = CIRCLE ( 'NONE', #21, 4.000000000000000000 ) ;
#134 = DATE_AND_TIME ( #79, #162 ) ;
#135 = DIRECTION ( 'NONE',  ( 0.000000000000000000, 0.000000000000000000, 1.000000000000000000 ) ) ;
#136 = DIRECTION ( 'NONE',  ( 0.000000000000000000, 0.000000000000000000, 1.000000000000000000 ) ) ;
#137 = ORIENTED_EDGE ( 'NONE', *, *, #157, .F. ) ;
#138 = EDGE_LOOP ( 'NONE', ( #83, #64, #160, #141 ) ) ;
#139 = APPROVAL ( #123, 'NEURÈENÝ' ) ;
#140 = AXIS2_PLACEMENT_3D ( 'NONE', #217, #135, #238 ) ;
#141 = ORIENTED_EDGE ( 'NONE', *, *, #73, .F. ) ;
#142 = PERSON_AND_ORGANIZATION_ROLE ( 'classification_officer' ) ;
#143 = EDGE_LOOP ( 'NONE', ( #206, #25 ) ) ;
#144 = DATE_AND_TIME ( #146, #189 ) ;
#145 = CARTESIAN_POINT ( 'NONE',  ( -7.000000000000000000, 0.000000000000000000, 5.000000000000000000 ) ) ;
#146 = CALENDAR_DATE ( 2022, 7, 7 ) ;
#147 = LINE ( 'NONE', #234, #16 ) ;
#148 = FACE_OUTER_BOUND ( 'NONE', #2, .T. ) ;
#149 = AXIS2_PLACEMENT_3D ( 'NONE', #12, #246, #92 ) ;
#150 = CARTESIAN_POINT ( 'NONE',  ( 0.000000000000000000, 0.000000000000000000, 5.000000000000000000 ) ) ;
#151 = DIRECTION ( 'NONE',  ( 1.000000000000000000, 0.000000000000000000, 0.000000000000000000 ) ) ;
#152 = PERSON_AND_ORGANIZATION ( #95, #97 ) ;
#153 = CALENDAR_DATE ( 2022, 7, 7 ) ;
#154 = AXIS2_PLACEMENT_3D ( 'NONE', #130, #36, #215 ) ;
#155 = DIRECTION ( 'NONE',  ( 0.000000000000000000, 0.000000000000000000, 1.000000000000000000 ) ) ;
#156 = FACE_OUTER_BOUND ( 'NONE', #3, .T. ) ;
#157 = EDGE_CURVE ( 'NONE', #183, #63, #159, .T. ) ;
#158 = VERTEX_POINT ( 'NONE', #68 ) ;
#159 = CIRCLE ( 'NONE', #196, 7.000000000000000000 ) ;
#160 = ORIENTED_EDGE ( 'NONE', *, *, #67, .T. ) ;
#161 = LOCAL_TIME ( 19, 32, 59.00000000000000000, #30 ) ;
#162 = LOCAL_TIME ( 19, 32, 59.00000000000000000, #78 ) ;
#163 = PRODUCT ( '11f6', '11f6', '', ( #178 ) ) ;
#164 = VERTEX_POINT ( 'NONE', #14 ) ;
#165 = DATE_TIME_ROLE ( 'classification_date' ) ;
#166 = EDGE_CURVE ( 'NONE', #116, #104, #100, .T. ) ;
#167 = CLOSED_SHELL ( 'NONE', ( #210, #35, #187, #4, #24, #113, #216 ) ) ;
#168 = DIRECTION ( 'NONE',  ( 1.000000000000000000, 0.000000000000000000, 0.000000000000000000 ) ) ;
#169 = CC_DESIGN_SECURITY_CLASSIFICATION ( #174, ( #132 ) ) ;
#170 = DIRECTION ( 'NONE',  ( 1.000000000000000000, 0.000000000000000000, 0.000000000000000000 ) ) ;
#171 = DIRECTION ( 'NONE',  ( -1.000000000000000000, 0.000000000000000000, 0.000000000000000000 ) ) ;
#172 = APPROVAL ( #41, 'NEURÈENÝ' ) ;
#173 = DIRECTION ( 'NONE',  ( -0.000000000000000000, -0.000000000000000000, -1.000000000000000000 ) ) ;
#174 = SECURITY_CLASSIFICATION ( '', '', #228 ) ;
#175 = DIRECTION ( 'NONE',  ( 1.000000000000000000, 0.000000000000000000, 0.000000000000000000 ) ) ;
#176 = AXIS2_PLACEMENT_3D ( 'NONE', #118, #107, #205 ) ;
#177 = CALENDAR_DATE ( 2022, 7, 7 ) ;
#178 = MECHANICAL_CONTEXT ( 'NONE', #222, 'mechanical' ) ;
#179 = ORIENTED_EDGE ( 'NONE', *, *, #226, .F. ) ;
#180 = PRODUCT_DEFINITION ( 'NEZNÁMÝ', '', #132, #71 ) ;
#181 = APPROVAL_STATUS ( 'not_yet_approved' ) ;
#182 = EDGE_LOOP ( 'NONE', ( #227, #137, #241, #221 ) ) ;
#183 = VERTEX_POINT ( 'NONE', #8 ) ;
#184 = CIRCLE ( 'NONE', #124, 4.000000000000000000 ) ;
#185 = ORIENTED_EDGE ( 'NONE', *, *, #200, .F. ) ;
#186 = VERTEX_POINT ( 'NONE', #72 ) ;
#187 = ADVANCED_FACE ( 'NONE', ( #231 ), #76, .T. ) ;
#188 = CYLINDRICAL_SURFACE ( 'NONE', #52, 4.000000000000000000 ) ;
#189 = LOCAL_TIME ( 19, 32, 59.00000000000000000, #211 ) ;
#190 = CC_DESIGN_PERSON_AND_ORGANIZATION_ASSIGNMENT ( #28, #89, ( #132 ) ) ;
#191 = FACE_OUTER_BOUND ( 'NONE', #138, .T. ) ;
#192 = FACE_OUTER_BOUND ( 'NONE', #84, .T. ) ;
#193 = CARTESIAN_POINT ( 'NONE',  ( 7.000000000000000000, 8.572527594031473190E-16, 0.000000000000000000 ) ) ;
#194 = CIRCLE ( 'NONE', #254, 7.000000000000000000 ) ;
#195 = APPROVAL_ROLE ( '' ) ;
#196 = AXIS2_PLACEMENT_3D ( 'NONE', #10, #91, #170 ) ;
#197 = CARTESIAN_POINT ( 'NONE',  ( 0.000000000000000000, 0.000000000000000000, 0.000000000000000000 ) ) ;
#198 = DATE_TIME_ROLE ( 'creation_date' ) ;
#199 = ORIENTED_EDGE ( 'NONE', *, *, #73, .T. ) ;
#200 = EDGE_CURVE ( 'NONE', #186, #164, #184, .T. ) ;
#201 = ADVANCED_BREP_SHAPE_REPRESENTATION ( '11f6', ( #56, #244 ), #213 ) ;
#202 =( LENGTH_UNIT ( ) NAMED_UNIT ( * ) SI_UNIT ( .MILLI., .METRE. ) );
#203 = ORIENTED_EDGE ( 'NONE', *, *, #235, .F. ) ;
#204 = APPROVAL_PERSON_ORGANIZATION ( #49, #139, #225 ) ;
#205 = DIRECTION ( 'NONE',  ( 1.000000000000000000, 0.000000000000000000, -0.000000000000000000 ) ) ;
#206 = ORIENTED_EDGE ( 'NONE', *, *, #38, .F. ) ;
#207 = CIRCLE ( 'NONE', #149, 7.000000000000000000 ) ;
#208 = ORIENTED_EDGE ( 'NONE', *, *, #67, .F. ) ;
#209 = CARTESIAN_POINT ( 'NONE',  ( 0.000000000000000000, 0.000000000000000000, 5.000000000000000000 ) ) ;
#210 = ADVANCED_FACE ( 'NONE', ( #191 ), #252, .T. ) ;
#211 = COORDINATED_UNIVERSAL_TIME_OFFSET ( 1, 0, .AHEAD. ) ;
#212 = LINE ( 'NONE', #145, #121 ) ;
#213 =( GEOMETRIC_REPRESENTATION_CONTEXT ( 3 ) GLOBAL_UNCERTAINTY_ASSIGNED_CONTEXT ( ( #75 ) ) GLOBAL_UNIT_ASSIGNED_CONTEXT ( ( #202, #101, #57 ) ) REPRESENTATION_CONTEXT ( 'NONE', 'WORKASPACE' ) );
#214 = DIRECTION ( 'NONE',  ( -0.000000000000000000, -0.000000000000000000, -1.000000000000000000 ) ) ;
#215 = DIRECTION ( 'NONE',  ( 1.000000000000000000, 0.000000000000000000, -0.000000000000000000 ) ) ;
#216 = ADVANCED_FACE ( 'NONE', ( #148 ), #232, .T. ) ;
#217 = CARTESIAN_POINT ( 'NONE',  ( 0.000000000000000000, 0.000000000000000000, 255.0000000000000000 ) ) ;
#218 = APPROVAL_PERSON_ORGANIZATION ( #219, #172, #1 ) ;
#219 = PERSON_AND_ORGANIZATION ( #95, #97 ) ;
#220 = PERSON_AND_ORGANIZATION_ROLE ( 'design_owner' ) ;
#221 = ORIENTED_EDGE ( 'NONE', *, *, #38, .T. ) ;
#222 = APPLICATION_CONTEXT ( 'configuration controlled 3d designs of mechanical parts and assemblies' ) ;
#223 = VERTEX_POINT ( 'NONE', #250 ) ;
#224 = ORIENTED_EDGE ( 'NONE', *, *, #243, .T. ) ;
#225 = APPROVAL_ROLE ( '' ) ;
#226 = EDGE_CURVE ( 'NONE', #158, #164, #37, .T. ) ;
#227 = ORIENTED_EDGE ( 'NONE', *, *, #13, .F. ) ;
#228 = SECURITY_CLASSIFICATION_LEVEL ( 'unclassified' ) ;
#229 = DIRECTION ( 'NONE',  ( -1.000000000000000000, 0.000000000000000000, 0.000000000000000000 ) ) ;
#230 = CC_DESIGN_PERSON_AND_ORGANIZATION_ASSIGNMENT ( #62, #220, ( #163 ) ) ;
#231 = FACE_OUTER_BOUND ( 'NONE', #182, .T. ) ;
#232 = PLANE ( 'NONE',  #154 ) ;
#233 = APPROVAL_PERSON_ORGANIZATION ( #255, #43, #195 ) ;
#234 = CARTESIAN_POINT ( 'NONE',  ( -4.000000000000000000, 0.000000000000000000, 255.0000000000000000 ) ) ;
#235 = EDGE_CURVE ( 'NONE', #63, #183, #194, .T. ) ;
#236 = CC_DESIGN_DATE_AND_TIME_ASSIGNMENT ( #59, #198, ( #180 ) ) ;
#237 = CARTESIAN_POINT ( 'NONE',  ( 0.000000000000000000, 0.000000000000000000, 255.0000000000000000 ) ) ;
#238 = DIRECTION ( 'NONE',  ( 1.000000000000000000, 0.000000000000000000, 0.000000000000000000 ) ) ;
#239 = DATE_AND_TIME ( #153, #34 ) ;
#240 = ORIENTED_EDGE ( 'NONE', *, *, #253, .T. ) ;
#241 = ORIENTED_EDGE ( 'NONE', *, *, #115, .T. ) ;
#242 = PLANE ( 'NONE',  #176 ) ;
#243 = EDGE_CURVE ( 'NONE', #158, #223, #22, .T. ) ;
#244 = AXIS2_PLACEMENT_3D ( 'NONE', #197, #136, #98 ) ;
#245 = FACE_OUTER_BOUND ( 'NONE', #143, .T. ) ;
#246 = DIRECTION ( 'NONE',  ( 0.000000000000000000, 0.000000000000000000, 1.000000000000000000 ) ) ;
#247 = PERSON_AND_ORGANIZATION ( #95, #97 ) ;
#248 = DIRECTION ( 'NONE',  ( 1.000000000000000000, 0.000000000000000000, 0.000000000000000000 ) ) ;
#249 = DIRECTION ( 'NONE',  ( 0.000000000000000000, 0.000000000000000000, 1.000000000000000000 ) ) ;
#250 = CARTESIAN_POINT ( 'NONE',  ( -4.000000000000000000, 0.000000000000000000, 255.0000000000000000 ) ) ;
#251 = CC_DESIGN_PERSON_AND_ORGANIZATION_ASSIGNMENT ( #247, #125, ( #132 ) ) ;
#252 = CYLINDRICAL_SURFACE ( 'NONE', #44, 4.000000000000000000 ) ;
#253 = EDGE_CURVE ( 'NONE', #223, #158, #133, .T. ) ;
#254 = AXIS2_PLACEMENT_3D ( 'NONE', #99, #155, #151 ) ;
#255 = PERSON_AND_ORGANIZATION ( #95, #97 ) ;
ENDSEC;
END-ISO-10303-21;
