ISO-10303-21;
HEADER;
FILE_DESCRIPTION (( 'STEP AP203' ),
    '1' );
FILE_NAME ('ba09.STEP',
    '2023-02-13T08:46:33',
    ( '' ),
    ( '' ),
    'SwSTEP 2.0',
    'SolidWorks 2019',
    '' );
FILE_SCHEMA (( 'CONFIG_CONTROL_DESIGN' ));
ENDSEC;

DATA;
#1 = LINE ( 'NONE', #74, #247 ) ;
#2 = AXIS2_PLACEMENT_3D ( 'NONE', #70, #109, #35 ) ;
#3 = EDGE_LOOP ( 'NONE', ( #200, #158, #39, #96 ) ) ;
#4 = CIRCLE ( 'NONE', #179, 12.00000000000000178 ) ;
#5 = DIRECTION ( 'NONE',  ( -1.000000000000000000, 0.000000000000000000, 0.000000000000000000 ) ) ;
#6 = DIRECTION ( 'NONE',  ( 0.000000000000000000, 0.000000000000000000, 1.000000000000000000 ) ) ;
#7 = CC_DESIGN_DATE_AND_TIME_ASSIGNMENT ( #155, #178, ( #252 ) ) ;
#8 = DIRECTION ( 'NONE',  ( 1.000000000000000000, 0.000000000000000000, -0.000000000000000000 ) ) ;
#9 = DIRECTION ( 'NONE',  ( 1.000000000000000000, 0.000000000000000000, 0.000000000000000000 ) ) ;
#10 = AXIS2_PLACEMENT_3D ( 'NONE', #99, #81, #90 ) ;
#11 = DIRECTION ( 'NONE',  ( -1.000000000000000000, 0.000000000000000000, 0.000000000000000000 ) ) ;
#12 = CC_DESIGN_APPROVAL ( #45, ( #186 ) ) ;
#13 = EDGE_CURVE ( 'NONE', #52, #241, #28, .T. ) ;
#14 = APPROVAL_DATE_TIME ( #72, #45 ) ;
#15 = CC_DESIGN_PERSON_AND_ORGANIZATION_ASSIGNMENT ( #148, #227, ( #186 ) ) ;
#16 = ORIENTED_EDGE ( 'NONE', *, *, #122, .T. ) ;
#17 = CIRCLE ( 'NONE', #44, 9.000000000000001776 ) ;
#18 = CARTESIAN_POINT ( 'NONE',  ( 0.000000000000000000, 0.000000000000000000, 7.000000000000000000 ) ) ;
#19 = ADVANCED_FACE ( 'NONE', ( #225 ), #221, .F. ) ;
#20 = ORIENTED_EDGE ( 'NONE', *, *, #193, .F. ) ;
#21 = APPROVAL_PERSON_ORGANIZATION ( #106, #211, #77 ) ;
#22 = EDGE_LOOP ( 'NONE', ( #79, #16 ) ) ;
#23 = SHAPE_DEFINITION_REPRESENTATION ( #207, #140 ) ;
#24 = PERSON_AND_ORGANIZATION_ROLE ( 'classification_officer' ) ;
#25 = EDGE_LOOP ( 'NONE', ( #248, #121, #80, #246 ) ) ;
#26 = VERTEX_POINT ( 'NONE', #40 ) ;
#27 = CARTESIAN_POINT ( 'NONE',  ( -12.00000000000000178, 0.000000000000000000, 7.000000000000000000 ) ) ;
#28 = CIRCLE ( 'NONE', #10, 9.000000000000001776 ) ;
#29 = ORIENTED_EDGE ( 'NONE', *, *, #13, .F. ) ;
#30 = ORIENTED_EDGE ( 'NONE', *, *, #172, .F. ) ;
#31 = DATE_TIME_ROLE ( 'creation_date' ) ;
#32 =( GEOMETRIC_REPRESENTATION_CONTEXT ( 3 ) GLOBAL_UNCERTAINTY_ASSIGNED_CONTEXT ( ( #104 ) ) GLOBAL_UNIT_ASSIGNED_CONTEXT ( ( #112, #36, #191 ) ) REPRESENTATION_CONTEXT ( 'NONE', 'WORKASPACE' ) );
#33 = PERSON_AND_ORGANIZATION_ROLE ( 'design_owner' ) ;
#34 = VERTEX_POINT ( 'NONE', #196 ) ;
#35 = DIRECTION ( 'NONE',  ( 1.000000000000000000, 0.000000000000000000, 0.000000000000000000 ) ) ;
#36 =( NAMED_UNIT ( * ) PLANE_ANGLE_UNIT ( ) SI_UNIT ( $, .RADIAN. ) );
#37 = ORIENTED_EDGE ( 'NONE', *, *, #193, .T. ) ;
#38 = ORIENTED_EDGE ( 'NONE', *, *, #160, .F. ) ;
#39 = ORIENTED_EDGE ( 'NONE', *, *, #119, .T. ) ;
#40 = CARTESIAN_POINT ( 'NONE',  ( 12.00000000000000178, 1.469576158976824144E-15, 7.000000000000000000 ) ) ;
#41 = PRODUCT_RELATED_PRODUCT_CATEGORY ( 'detail', '', ( #250 ) ) ;
#42 = CC_DESIGN_APPROVAL ( #211, ( #210 ) ) ;
#43 = FACE_BOUND ( 'NONE', #204, .T. ) ;
#44 = AXIS2_PLACEMENT_3D ( 'NONE', #242, #223, #184 ) ;
#45 = APPROVAL ( #66, 'NEURÈENÝ' ) ;
#46 = ORIENTED_EDGE ( 'NONE', *, *, #146, .T. ) ;
#47 = LINE ( 'NONE', #27, #166 ) ;
#48 = COORDINATED_UNIVERSAL_TIME_OFFSET ( 1, 0, .AHEAD. ) ;
#49 = APPLICATION_CONTEXT ( 'configuration controlled 3d designs of mechanical parts and assemblies' ) ;
#50 = CARTESIAN_POINT ( 'NONE',  ( -9.000000000000001776, 0.000000000000000000, 7.000000000000000000 ) ) ;
#51 = ADVANCED_FACE ( 'NONE', ( #153 ), #238, .T. ) ;
#52 = VERTEX_POINT ( 'NONE', #50 ) ;
#53 = PERSON_AND_ORGANIZATION_ROLE ( 'creator' ) ;
#54 = CARTESIAN_POINT ( 'NONE',  ( 0.000000000000000000, 0.000000000000000000, 100.0000000000000000 ) ) ;
#55 = CC_DESIGN_DATE_AND_TIME_ASSIGNMENT ( #206, #31, ( #186 ) ) ;
#56 = AXIS2_PLACEMENT_3D ( 'NONE', #117, #61, #5 ) ;
#57 = FACE_OUTER_BOUND ( 'NONE', #3, .T. ) ;
#58 = CALENDAR_DATE ( 2023, 13, 2 ) ;
#59 = CIRCLE ( 'NONE', #159, 9.000000000000001776 ) ;
#60 = PERSON_AND_ORGANIZATION ( #144, #173 ) ;
#61 = DIRECTION ( 'NONE',  ( -0.000000000000000000, -0.000000000000000000, -1.000000000000000000 ) ) ;
#62 = VERTEX_POINT ( 'NONE', #114 ) ;
#63 = FACE_OUTER_BOUND ( 'NONE', #25, .T. ) ;
#64 = EDGE_LOOP ( 'NONE', ( #46, #83 ) ) ;
#65 = CIRCLE ( 'NONE', #2, 12.00000000000000178 ) ;
#66 = APPROVAL_STATUS ( 'not_yet_approved' ) ;
#67 = PERSON_AND_ORGANIZATION ( #144, #173 ) ;
#68 = EDGE_LOOP ( 'NONE', ( #30, #175, #37, #198 ) ) ;
#69 = AXIS2_PLACEMENT_3D ( 'NONE', #222, #181, #11 ) ;
#70 = CARTESIAN_POINT ( 'NONE',  ( 0.000000000000000000, 0.000000000000000000, 0.000000000000000000 ) ) ;
#71 = DIRECTION ( 'NONE',  ( -0.000000000000000000, -0.000000000000000000, -1.000000000000000000 ) ) ;
#72 = DATE_AND_TIME ( #255, #224 ) ;
#73 = DIRECTION ( 'NONE',  ( 1.000000000000000000, 0.000000000000000000, 0.000000000000000000 ) ) ;
#74 = CARTESIAN_POINT ( 'NONE',  ( -9.000000000000001776, 0.000000000000000000, 100.0000000000000000 ) ) ;
#75 = PERSON_AND_ORGANIZATION ( #144, #173 ) ;
#76 = ORIENTED_EDGE ( 'NONE', *, *, #239, .F. ) ;
#77 = APPROVAL_ROLE ( '' ) ;
#78 = VERTEX_POINT ( 'NONE', #192 ) ;
#79 = ORIENTED_EDGE ( 'NONE', *, *, #239, .T. ) ;
#80 = ORIENTED_EDGE ( 'NONE', *, *, #160, .T. ) ;
#81 = DIRECTION ( 'NONE',  ( 0.000000000000000000, 0.000000000000000000, 1.000000000000000000 ) ) ;
#82 = DIRECTION ( 'NONE',  ( -1.000000000000000000, 0.000000000000000000, 0.000000000000000000 ) ) ;
#83 = ORIENTED_EDGE ( 'NONE', *, *, #172, .T. ) ;
#84 = DIRECTION ( 'NONE',  ( 0.000000000000000000, 0.000000000000000000, 1.000000000000000000 ) ) ;
#85 = FACE_OUTER_BOUND ( 'NONE', #22, .T. ) ;
#86 = CC_DESIGN_PERSON_AND_ORGANIZATION_ASSIGNMENT ( #75, #53, ( #210 ) ) ;
#87 = CARTESIAN_POINT ( 'NONE',  ( 9.000000000000001776, 1.102182119232617714E-15, 7.000000000000000000 ) ) ;
#88 = CC_DESIGN_PERSON_AND_ORGANIZATION_ASSIGNMENT ( #199, #24, ( #252 ) ) ;
#89 = LINE ( 'NONE', #170, #185 ) ;
#90 = DIRECTION ( 'NONE',  ( 1.000000000000000000, 0.000000000000000000, 0.000000000000000000 ) ) ;
#91 = DIRECTION ( 'NONE',  ( 1.000000000000000000, 0.000000000000000000, -0.000000000000000000 ) ) ;
#92 = CARTESIAN_POINT ( 'NONE',  ( 9.000000000000001776, 1.102182119232617714E-15, 100.0000000000000000 ) ) ;
#93 = APPLICATION_PROTOCOL_DEFINITION ( 'international standard', 'config_control_design', 1994, #135 ) ;
#94 = COORDINATED_UNIVERSAL_TIME_OFFSET ( 1, 0, .AHEAD. ) ;
#95 = DATE_AND_TIME ( #58, #98 ) ;
#96 = ORIENTED_EDGE ( 'NONE', *, *, #13, .T. ) ;
#97 = CLOSED_SHELL ( 'NONE', ( #126, #217, #51, #228, #19, #132, #245 ) ) ;
#98 = LOCAL_TIME ( 9, 46, 33.00000000000000000, #94 ) ;
#99 = CARTESIAN_POINT ( 'NONE',  ( 0.000000000000000000, 0.000000000000000000, 7.000000000000000000 ) ) ;
#100 = CARTESIAN_POINT ( 'NONE',  ( 0.000000000000000000, 0.000000000000000000, 7.000000000000000000 ) ) ;
#101 = DIRECTION ( 'NONE',  ( -0.000000000000000000, -0.000000000000000000, -1.000000000000000000 ) ) ;
#102 = LOCAL_TIME ( 9, 46, 33.00000000000000000, #48 ) ;
#103 = EDGE_LOOP ( 'NONE', ( #230, #38 ) ) ;
#104 = UNCERTAINTY_MEASURE_WITH_UNIT (LENGTH_MEASURE( 1.000000000000000082E-05 ), #112, 'distance_accuracy_value', 'NONE');
#105 = AXIS2_PLACEMENT_3D ( 'NONE', #18, #165, #130 ) ;
#106 = PERSON_AND_ORGANIZATION ( #144, #173 ) ;
#107 = CC_DESIGN_APPROVAL ( #202, ( #252 ) ) ;
#108 = VERTEX_POINT ( 'NONE', #189 ) ;
#109 = DIRECTION ( 'NONE',  ( 0.000000000000000000, 0.000000000000000000, 1.000000000000000000 ) ) ;
#110 = EDGE_CURVE ( 'NONE', #26, #78, #89, .T. ) ;
#111 = CARTESIAN_POINT ( 'NONE',  ( 0.000000000000000000, 0.000000000000000000, 7.000000000000000000 ) ) ;
#112 =( LENGTH_UNIT ( ) NAMED_UNIT ( * ) SI_UNIT ( .MILLI., .METRE. ) );
#113 = LOCAL_TIME ( 9, 46, 33.00000000000000000, #156 ) ;
#114 = CARTESIAN_POINT ( 'NONE',  ( 9.000000000000001776, 1.102182119232617714E-15, 100.0000000000000000 ) ) ;
#115 = DIRECTION ( 'NONE',  ( 0.000000000000000000, 0.000000000000000000, 1.000000000000000000 ) ) ;
#116 = DIRECTION ( 'NONE',  ( 0.000000000000000000, 0.000000000000000000, 1.000000000000000000 ) ) ;
#117 = CARTESIAN_POINT ( 'NONE',  ( 0.000000000000000000, 0.000000000000000000, 100.0000000000000000 ) ) ;
#118 = CIRCLE ( 'NONE', #105, 12.00000000000000178 ) ;
#119 = EDGE_CURVE ( 'NONE', #108, #52, #1, .T. ) ;
#120 = APPROVAL_DATE_TIME ( #176, #202 ) ;
#121 = ORIENTED_EDGE ( 'NONE', *, *, #110, .T. ) ;
#122 = EDGE_CURVE ( 'NONE', #26, #34, #118, .T. ) ;
#123 = AXIS2_PLACEMENT_3D ( 'NONE', #171, #71, #233 ) ;
#124 = APPROVAL_PERSON_ORGANIZATION ( #151, #45, #187 ) ;
#125 = CARTESIAN_POINT ( 'NONE',  ( 0.000000000000000000, 0.000000000000000000, 0.000000000000000000 ) ) ;
#126 = ADVANCED_FACE ( 'NONE', ( #218 ), #237, .T. ) ;
#127 = CALENDAR_DATE ( 2023, 13, 2 ) ;
#128 = DIRECTION ( 'NONE',  ( 0.000000000000000000, 0.000000000000000000, 1.000000000000000000 ) ) ;
#129 = AXIS2_PLACEMENT_3D ( 'NONE', #111, #231, #149 ) ;
#130 = DIRECTION ( 'NONE',  ( 1.000000000000000000, 0.000000000000000000, 0.000000000000000000 ) ) ;
#131 = DIRECTION ( 'NONE',  ( 1.000000000000000000, 0.000000000000000000, -0.000000000000000000 ) ) ;
#132 = ADVANCED_FACE ( 'NONE', ( #57 ), #214, .T. ) ;
#133 = MECHANICAL_CONTEXT ( 'NONE', #49, 'mechanical' ) ;
#134 = DIRECTION ( 'NONE',  ( -0.000000000000000000, -0.000000000000000000, -1.000000000000000000 ) ) ;
#135 = APPLICATION_CONTEXT ( 'configuration controlled 3d designs of mechanical parts and assemblies' ) ;
#136 = EDGE_CURVE ( 'NONE', #34, #188, #47, .T. ) ;
#137 = DIRECTION ( 'NONE',  ( -0.000000000000000000, -0.000000000000000000, -1.000000000000000000 ) ) ;
#138 = APPROVAL_PERSON_ORGANIZATION ( #60, #202, #195 ) ;
#139 = SECURITY_CLASSIFICATION_LEVEL ( 'unclassified' ) ;
#140 = ADVANCED_BREP_SHAPE_REPRESENTATION ( 'ba09', ( #226, #212 ), #32 ) ;
#141 = CALENDAR_DATE ( 2023, 13, 2 ) ;
#142 = CALENDAR_DATE ( 2023, 13, 2 ) ;
#143 = AXIS2_PLACEMENT_3D ( 'NONE', #161, #145, #91 ) ;
#144 = PERSON ( 'NEURÈENÝ', 'NEURÈENÝ', 'NEURÈENÝ', ('NEURÈENÝ'), ('NEURÈENÝ'), ('NEURÈENÝ') ) ;
#145 = DIRECTION ( 'NONE',  ( 0.000000000000000000, 0.000000000000000000, 1.000000000000000000 ) ) ;
#146 = EDGE_CURVE ( 'NONE', #108, #62, #17, .T. ) ;
#147 = VECTOR ( 'NONE', #254, 1000.000000000000000 ) ;
#148 = PERSON_AND_ORGANIZATION ( #144, #173 ) ;
#149 = DIRECTION ( 'NONE',  ( 1.000000000000000000, 0.000000000000000000, 0.000000000000000000 ) ) ;
#150 = EDGE_CURVE ( 'NONE', #62, #241, #162, .T. ) ;
#151 = PERSON_AND_ORGANIZATION ( #144, #173 ) ;
#152 = AXIS2_PLACEMENT_3D ( 'NONE', #183, #6, #8 ) ;
#153 = FACE_OUTER_BOUND ( 'NONE', #201, .T. ) ;
#154 = CIRCLE ( 'NONE', #190, 9.000000000000001776 ) ;
#155 = DATE_AND_TIME ( #141, #113 ) ;
#156 = COORDINATED_UNIVERSAL_TIME_OFFSET ( 1, 0, .AHEAD. ) ;
#157 = COORDINATED_UNIVERSAL_TIME_OFFSET ( 1, 0, .AHEAD. ) ;
#158 = ORIENTED_EDGE ( 'NONE', *, *, #146, .F. ) ;
#159 = AXIS2_PLACEMENT_3D ( 'NONE', #100, #180, #9 ) ;
#160 = EDGE_CURVE ( 'NONE', #78, #188, #65, .T. ) ;
#161 = CARTESIAN_POINT ( 'NONE',  ( 0.000000000000000000, 0.000000000000000000, 7.000000000000000000 ) ) ;
#162 = LINE ( 'NONE', #92, #147 ) ;
#163 = COORDINATED_UNIVERSAL_TIME_OFFSET ( 1, 0, .AHEAD. ) ;
#164 = APPLICATION_PROTOCOL_DEFINITION ( 'international standard', 'config_control_design', 1994, #49 ) ;
#165 = DIRECTION ( 'NONE',  ( 0.000000000000000000, 0.000000000000000000, 1.000000000000000000 ) ) ;
#166 = VECTOR ( 'NONE', #101, 1000.000000000000000 ) ;
#167 = LOCAL_TIME ( 9, 46, 33.00000000000000000, #157 ) ;
#168 = FACE_OUTER_BOUND ( 'NONE', #64, .T. ) ;
#169 = CARTESIAN_POINT ( 'NONE',  ( 0.000000000000000000, 0.000000000000000000, 100.0000000000000000 ) ) ;
#170 = CARTESIAN_POINT ( 'NONE',  ( 12.00000000000000178, 1.469576158976824144E-15, 7.000000000000000000 ) ) ;
#171 = CARTESIAN_POINT ( 'NONE',  ( 0.000000000000000000, 0.000000000000000000, 7.000000000000000000 ) ) ;
#172 = EDGE_CURVE ( 'NONE', #62, #108, #154, .T. ) ;
#173 = ORGANIZATION ( 'NEURÈENÝ', 'NEURÈENÝ', '' ) ;
#174 = PERSON_AND_ORGANIZATION ( #144, #173 ) ;
#175 = ORIENTED_EDGE ( 'NONE', *, *, #150, .T. ) ;
#176 = DATE_AND_TIME ( #142, #167 ) ;
#177 = AXIS2_PLACEMENT_3D ( 'NONE', #54, #137, #82 ) ;
#178 = DATE_TIME_ROLE ( 'classification_date' ) ;
#179 = AXIS2_PLACEMENT_3D ( 'NONE', #125, #84, #203 ) ;
#180 = DIRECTION ( 'NONE',  ( 0.000000000000000000, 0.000000000000000000, 1.000000000000000000 ) ) ;
#181 = DIRECTION ( 'NONE',  ( -0.000000000000000000, -0.000000000000000000, -1.000000000000000000 ) ) ;
#182 = AXIS2_PLACEMENT_3D ( 'NONE', #229, #128, #131 ) ;
#183 = CARTESIAN_POINT ( 'NONE',  ( 0.000000000000000000, 0.000000000000000000, 0.000000000000000000 ) ) ;
#184 = DIRECTION ( 'NONE',  ( 1.000000000000000000, 0.000000000000000000, 0.000000000000000000 ) ) ;
#185 = VECTOR ( 'NONE', #134, 1000.000000000000000 ) ;
#186 = PRODUCT_DEFINITION ( 'NEZNÁMÝ', '', #210, #251 ) ;
#187 = APPROVAL_ROLE ( '' ) ;
#188 = VERTEX_POINT ( 'NONE', #235 ) ;
#189 = CARTESIAN_POINT ( 'NONE',  ( -9.000000000000001776, 0.000000000000000000, 100.0000000000000000 ) ) ;
#190 = AXIS2_PLACEMENT_3D ( 'NONE', #169, #116, #73 ) ;
#191 =( NAMED_UNIT ( * ) SI_UNIT ( $, .STERADIAN. ) SOLID_ANGLE_UNIT ( ) );
#192 = CARTESIAN_POINT ( 'NONE',  ( 12.00000000000000178, 1.469576158976824144E-15, 0.000000000000000000 ) ) ;
#193 = EDGE_CURVE ( 'NONE', #241, #52, #59, .T. ) ;
#194 = APPROVAL_STATUS ( 'not_yet_approved' ) ;
#195 = APPROVAL_ROLE ( '' ) ;
#196 = CARTESIAN_POINT ( 'NONE',  ( -12.00000000000000178, 0.000000000000000000, 7.000000000000000000 ) ) ;
#197 = APPROVAL_DATE_TIME ( #95, #211 ) ;
#198 = ORIENTED_EDGE ( 'NONE', *, *, #119, .F. ) ;
#199 = PERSON_AND_ORGANIZATION ( #144, #173 ) ;
#200 = ORIENTED_EDGE ( 'NONE', *, *, #150, .F. ) ;
#201 = EDGE_LOOP ( 'NONE', ( #240, #76, #215, #244 ) ) ;
#202 = APPROVAL ( #216, 'NEURÈENÝ' ) ;
#203 = DIRECTION ( 'NONE',  ( 1.000000000000000000, 0.000000000000000000, 0.000000000000000000 ) ) ;
#204 = EDGE_LOOP ( 'NONE', ( #29, #20 ) ) ;
#205 = CC_DESIGN_PERSON_AND_ORGANIZATION_ASSIGNMENT ( #174, #213, ( #210 ) ) ;
#206 = DATE_AND_TIME ( #127, #102 ) ;
#207 = PRODUCT_DEFINITION_SHAPE ( 'NONE', 'NONE',  #186 ) ;
#208 = CC_DESIGN_SECURITY_CLASSIFICATION ( #252, ( #210 ) ) ;
#209 = EDGE_CURVE ( 'NONE', #188, #78, #4, .T. ) ;
#210 = PRODUCT_DEFINITION_FORMATION_WITH_SPECIFIED_SOURCE ( 'LIBOVOLNÝ', '', #250, .NOT_KNOWN. ) ;
#211 = APPROVAL ( #194, 'NEURÈENÝ' ) ;
#212 = AXIS2_PLACEMENT_3D ( 'NONE', #232, #115, #253 ) ;
#213 = PERSON_AND_ORGANIZATION_ROLE ( 'design_supplier' ) ;
#214 = CYLINDRICAL_SURFACE ( 'NONE', #177, 9.000000000000001776 ) ;
#215 = ORIENTED_EDGE ( 'NONE', *, *, #136, .T. ) ;
#216 = APPROVAL_STATUS ( 'not_yet_approved' ) ;
#217 = ADVANCED_FACE ( 'NONE', ( #63 ), #220, .T. ) ;
#218 = FACE_OUTER_BOUND ( 'NONE', #68, .T. ) ;
#219 = CIRCLE ( 'NONE', #129, 12.00000000000000178 ) ;
#220 = CYLINDRICAL_SURFACE ( 'NONE', #69, 12.00000000000000178 ) ;
#221 = PLANE ( 'NONE',  #152 ) ;
#222 = CARTESIAN_POINT ( 'NONE',  ( 0.000000000000000000, 0.000000000000000000, 7.000000000000000000 ) ) ;
#223 = DIRECTION ( 'NONE',  ( 0.000000000000000000, 0.000000000000000000, 1.000000000000000000 ) ) ;
#224 = LOCAL_TIME ( 9, 46, 33.00000000000000000, #163 ) ;
#225 = FACE_OUTER_BOUND ( 'NONE', #103, .T. ) ;
#226 = MANIFOLD_SOLID_BREP ( 'Pøidat vysunutím3', #97 ) ;
#227 = PERSON_AND_ORGANIZATION_ROLE ( 'creator' ) ;
#228 = ADVANCED_FACE ( 'NONE', ( #43, #85 ), #243, .T. ) ;
#229 = CARTESIAN_POINT ( 'NONE',  ( 0.000000000000000000, 0.000000000000000000, 100.0000000000000000 ) ) ;
#230 = ORIENTED_EDGE ( 'NONE', *, *, #209, .F. ) ;
#231 = DIRECTION ( 'NONE',  ( 0.000000000000000000, 0.000000000000000000, 1.000000000000000000 ) ) ;
#232 = CARTESIAN_POINT ( 'NONE',  ( 0.000000000000000000, 0.000000000000000000, 0.000000000000000000 ) ) ;
#233 = DIRECTION ( 'NONE',  ( -1.000000000000000000, 0.000000000000000000, 0.000000000000000000 ) ) ;
#234 = PLANE ( 'NONE',  #182 ) ;
#235 = CARTESIAN_POINT ( 'NONE',  ( -12.00000000000000178, 0.000000000000000000, 0.000000000000000000 ) ) ;
#236 = DIRECTION ( 'NONE',  ( -0.000000000000000000, -0.000000000000000000, -1.000000000000000000 ) ) ;
#237 = CYLINDRICAL_SURFACE ( 'NONE', #56, 9.000000000000001776 ) ;
#238 = CYLINDRICAL_SURFACE ( 'NONE', #123, 12.00000000000000178 ) ;
#239 = EDGE_CURVE ( 'NONE', #34, #26, #219, .T. ) ;
#240 = ORIENTED_EDGE ( 'NONE', *, *, #110, .F. ) ;
#241 = VERTEX_POINT ( 'NONE', #87 ) ;
#242 = CARTESIAN_POINT ( 'NONE',  ( 0.000000000000000000, 0.000000000000000000, 100.0000000000000000 ) ) ;
#243 = PLANE ( 'NONE',  #143 ) ;
#244 = ORIENTED_EDGE ( 'NONE', *, *, #209, .T. ) ;
#245 = ADVANCED_FACE ( 'NONE', ( #168 ), #234, .T. ) ;
#246 = ORIENTED_EDGE ( 'NONE', *, *, #136, .F. ) ;
#247 = VECTOR ( 'NONE', #236, 1000.000000000000000 ) ;
#248 = ORIENTED_EDGE ( 'NONE', *, *, #122, .F. ) ;
#249 = CC_DESIGN_PERSON_AND_ORGANIZATION_ASSIGNMENT ( #67, #33, ( #250 ) ) ;
#250 = PRODUCT ( 'ba09', 'ba09', '', ( #133 ) ) ;
#251 = DESIGN_CONTEXT ( 'detailed design', #135, 'design' ) ;
#252 = SECURITY_CLASSIFICATION ( '', '', #139 ) ;
#253 = DIRECTION ( 'NONE',  ( 1.000000000000000000, 0.000000000000000000, 0.000000000000000000 ) ) ;
#254 = DIRECTION ( 'NONE',  ( -0.000000000000000000, -0.000000000000000000, -1.000000000000000000 ) ) ;
#255 = CALENDAR_DATE ( 2023, 13, 2 ) ;
ENDSEC;
END-ISO-10303-21;
