ISO-10303-21;
HEADER;
FILE_DESCRIPTION (( 'STEP AP203' ),
    '1' );
FILE_NAME ('5ce7.STEP',
    '2022-07-07T17:56:52',
    ( '' ),
    ( '' ),
    'SwSTEP 2.0',
    'SolidWorks 2019',
    '' );
FILE_SCHEMA (( 'CONFIG_CONTROL_DESIGN' ));
ENDSEC;

DATA;
#1 = CIRCLE ( 'NONE', #208, 3.000000000000000444 ) ;
#2 = FACE_BOUND ( 'NONE', #254, .T. ) ;
#3 = AXIS2_PLACEMENT_3D ( 'NONE', #38, #192, #96 ) ;
#4 = APPROVAL ( #194, 'NEURÈENÝ' ) ;
#5 = CARTESIAN_POINT ( 'NONE',  ( 1.500000000000000222, 1.836970198721030181E-16, 203.0000000000000000 ) ) ;
#6 = SECURITY_CLASSIFICATION_LEVEL ( 'unclassified' ) ;
#7 = CARTESIAN_POINT ( 'NONE',  ( 0.000000000000000000, 0.000000000000000000, 203.0000000000000000 ) ) ;
#8 = VERTEX_POINT ( 'NONE', #175 ) ;
#9 = CARTESIAN_POINT ( 'NONE',  ( 0.000000000000000000, 0.000000000000000000, 3.000000000000000000 ) ) ;
#10 = DIRECTION ( 'NONE',  ( -0.000000000000000000, -0.000000000000000000, -1.000000000000000000 ) ) ;
#11 = CARTESIAN_POINT ( 'NONE',  ( 3.000000000000000444, 3.673940397442060361E-16, 3.000000000000000000 ) ) ;
#12 = APPLICATION_PROTOCOL_DEFINITION ( 'international standard', 'config_control_design', 1994, #65 ) ;
#13 = VERTEX_POINT ( 'NONE', #5 ) ;
#14 = DIRECTION ( 'NONE',  ( 0.000000000000000000, 0.000000000000000000, 1.000000000000000000 ) ) ;
#15 = COORDINATED_UNIVERSAL_TIME_OFFSET ( 1, 0, .AHEAD. ) ;
#16 = CC_DESIGN_DATE_AND_TIME_ASSIGNMENT ( #199, #45, ( #229 ) ) ;
#17 = DIRECTION ( 'NONE',  ( 0.000000000000000000, 0.000000000000000000, 1.000000000000000000 ) ) ;
#18 = LINE ( 'NONE', #155, #62 ) ;
#19 = ADVANCED_FACE ( 'NONE', ( #2, #154 ), #138, .T. ) ;
#20 = EDGE_LOOP ( 'NONE', ( #56, #77 ) ) ;
#21 = ORIENTED_EDGE ( 'NONE', *, *, #28, .F. ) ;
#22 = PERSON_AND_ORGANIZATION ( #27, #240 ) ;
#23 = PERSON_AND_ORGANIZATION ( #27, #240 ) ;
#24 = CALENDAR_DATE ( 2022, 7, 7 ) ;
#25 = CC_DESIGN_DATE_AND_TIME_ASSIGNMENT ( #123, #44, ( #234 ) ) ;
#26 = PRODUCT_DEFINITION_SHAPE ( 'NONE', 'NONE',  #234 ) ;
#27 = PERSON ( 'NEURÈENÝ', 'NEURÈENÝ', 'NEURÈENÝ', ('NEURÈENÝ'), ('NEURÈENÝ'), ('NEURÈENÝ') ) ;
#28 = EDGE_CURVE ( 'NONE', #162, #8, #18, .T. ) ;
#29 = COORDINATED_UNIVERSAL_TIME_OFFSET ( 1, 0, .AHEAD. ) ;
#30 = LINE ( 'NONE', #48, #131 ) ;
#31 = DESIGN_CONTEXT ( 'detailed design', #121, 'design' ) ;
#32 = DIRECTION ( 'NONE',  ( 1.000000000000000000, 0.000000000000000000, 0.000000000000000000 ) ) ;
#33 = FACE_OUTER_BOUND ( 'NONE', #227, .T. ) ;
#34 = CIRCLE ( 'NONE', #217, 3.000000000000000444 ) ;
#35 = ORIENTED_EDGE ( 'NONE', *, *, #81, .T. ) ;
#36 = AXIS2_PLACEMENT_3D ( 'NONE', #54, #74, #111 ) ;
#37 = EDGE_CURVE ( 'NONE', #8, #70, #188, .T. ) ;
#38 = CARTESIAN_POINT ( 'NONE',  ( 0.000000000000000000, 0.000000000000000000, 0.000000000000000000 ) ) ;
#39 = ORIENTED_EDGE ( 'NONE', *, *, #207, .F. ) ;
#40 = CARTESIAN_POINT ( 'NONE',  ( 0.000000000000000000, 0.000000000000000000, 3.000000000000000000 ) ) ;
#41 = FACE_OUTER_BOUND ( 'NONE', #178, .T. ) ;
#42 = CARTESIAN_POINT ( 'NONE',  ( 0.000000000000000000, 0.000000000000000000, 3.000000000000000000 ) ) ;
#43 = CLOSED_SHELL ( 'NONE', ( #124, #238, #46, #19, #135, #255, #126 ) ) ;
#44 = DATE_TIME_ROLE ( 'creation_date' ) ;
#45 = DATE_TIME_ROLE ( 'classification_date' ) ;
#46 = ADVANCED_FACE ( 'NONE', ( #41 ), #216, .T. ) ;
#47 = LOCAL_TIME ( 19, 56, 52.00000000000000000, #63 ) ;
#48 = CARTESIAN_POINT ( 'NONE',  ( -1.500000000000000222, 0.000000000000000000, 203.0000000000000000 ) ) ;
#49 = AXIS2_PLACEMENT_3D ( 'NONE', #231, #197, #223 ) ;
#50 = FACE_OUTER_BOUND ( 'NONE', #214, .T. ) ;
#51 = APPROVAL_DATE_TIME ( #68, #4 ) ;
#52 = CC_DESIGN_APPROVAL ( #4, ( #234 ) ) ;
#53 = ORIENTED_EDGE ( 'NONE', *, *, #219, .F. ) ;
#54 = CARTESIAN_POINT ( 'NONE',  ( 0.000000000000000000, 0.000000000000000000, 3.000000000000000000 ) ) ;
#55 = VERTEX_POINT ( 'NONE', #171 ) ;
#56 = ORIENTED_EDGE ( 'NONE', *, *, #220, .T. ) ;
#57 = ORIENTED_EDGE ( 'NONE', *, *, #213, .T. ) ;
#58 = DIRECTION ( 'NONE',  ( -0.000000000000000000, -0.000000000000000000, -1.000000000000000000 ) ) ;
#59 = CC_DESIGN_APPROVAL ( #242, ( #92 ) ) ;
#60 = ORIENTED_EDGE ( 'NONE', *, *, #119, .F. ) ;
#61 = COORDINATED_UNIVERSAL_TIME_OFFSET ( 1, 0, .AHEAD. ) ;
#62 = VECTOR ( 'NONE', #116, 1000.000000000000000 ) ;
#63 = COORDINATED_UNIVERSAL_TIME_OFFSET ( 1, 0, .AHEAD. ) ;
#64 = CIRCLE ( 'NONE', #177, 3.000000000000000444 ) ;
#65 = APPLICATION_CONTEXT ( 'configuration controlled 3d designs of mechanical parts and assemblies' ) ;
#66 = DATE_AND_TIME ( #108, #183 ) ;
#67 = DIRECTION ( 'NONE',  ( -1.000000000000000000, 0.000000000000000000, 0.000000000000000000 ) ) ;
#68 = DATE_AND_TIME ( #161, #166 ) ;
#69 = CC_DESIGN_PERSON_AND_ORGANIZATION_ASSIGNMENT ( #132, #115, ( #85 ) ) ;
#70 = VERTEX_POINT ( 'NONE', #120 ) ;
#71 = FACE_OUTER_BOUND ( 'NONE', #20, .T. ) ;
#72 = EDGE_CURVE ( 'NONE', #162, #145, #1, .T. ) ;
#73 = DIRECTION ( 'NONE',  ( -0.000000000000000000, -0.000000000000000000, -1.000000000000000000 ) ) ;
#74 = DIRECTION ( 'NONE',  ( 0.000000000000000000, 0.000000000000000000, 1.000000000000000000 ) ) ;
#75 = CC_DESIGN_PERSON_AND_ORGANIZATION_ASSIGNMENT ( #83, #105, ( #234 ) ) ;
#76 = DIRECTION ( 'NONE',  ( 0.000000000000000000, 0.000000000000000000, 1.000000000000000000 ) ) ;
#77 = ORIENTED_EDGE ( 'NONE', *, *, #146, .T. ) ;
#78 = DIRECTION ( 'NONE',  ( 1.000000000000000000, 0.000000000000000000, -0.000000000000000000 ) ) ;
#79 = AXIS2_PLACEMENT_3D ( 'NONE', #42, #58, #195 ) ;
#80 = CC_DESIGN_PERSON_AND_ORGANIZATION_ASSIGNMENT ( #22, #180, ( #92 ) ) ;
#81 = EDGE_CURVE ( 'NONE', #70, #8, #34, .T. ) ;
#82 = APPROVAL_STATUS ( 'not_yet_approved' ) ;
#83 = PERSON_AND_ORGANIZATION ( #27, #240 ) ;
#84 = ADVANCED_BREP_SHAPE_REPRESENTATION ( '5ce7', ( #151, #3 ), #189 ) ;
#85 = PRODUCT ( '5ce7', '5ce7', '', ( #114 ) ) ;
#86 = FACE_OUTER_BOUND ( 'NONE', #112, .T. ) ;
#87 = PERSON_AND_ORGANIZATION ( #27, #240 ) ;
#88 = APPROVAL ( #243, 'NEURÈENÝ' ) ;
#89 = ORIENTED_EDGE ( 'NONE', *, *, #184, .T. ) ;
#90 = DIRECTION ( 'NONE',  ( 0.000000000000000000, 0.000000000000000000, 1.000000000000000000 ) ) ;
#91 = ORIENTED_EDGE ( 'NONE', *, *, #207, .T. ) ;
#92 = PRODUCT_DEFINITION_FORMATION_WITH_SPECIFIED_SOURCE ( 'LIBOVOLNÝ', '', #85, .NOT_KNOWN. ) ;
#93 = CARTESIAN_POINT ( 'NONE',  ( -1.500000000000000222, 0.000000000000000000, 203.0000000000000000 ) ) ;
#94 = APPLICATION_PROTOCOL_DEFINITION ( 'international standard', 'config_control_design', 1994, #121 ) ;
#95 = DIRECTION ( 'NONE',  ( 1.000000000000000000, 0.000000000000000000, 0.000000000000000000 ) ) ;
#96 = DIRECTION ( 'NONE',  ( 1.000000000000000000, 0.000000000000000000, 0.000000000000000000 ) ) ;
#97 = EDGE_LOOP ( 'NONE', ( #193, #170, #91, #152 ) ) ;
#98 = DIRECTION ( 'NONE',  ( 0.000000000000000000, 0.000000000000000000, 1.000000000000000000 ) ) ;
#99 = VECTOR ( 'NONE', #73, 1000.000000000000000 ) ;
#100 = FACE_OUTER_BOUND ( 'NONE', #97, .T. ) ;
#101 = ORIENTED_EDGE ( 'NONE', *, *, #201, .T. ) ;
#102 = AXIS2_PLACEMENT_3D ( 'NONE', #113, #187, #128 ) ;
#103 = ORIENTED_EDGE ( 'NONE', *, *, #37, .F. ) ;
#104 = PERSON_AND_ORGANIZATION_ROLE ( 'creator' ) ;
#105 = PERSON_AND_ORGANIZATION_ROLE ( 'creator' ) ;
#106 = VECTOR ( 'NONE', #244, 1000.000000000000000 ) ;
#107 = AXIS2_PLACEMENT_3D ( 'NONE', #40, #76, #78 ) ;
#108 = CALENDAR_DATE ( 2022, 7, 7 ) ;
#109 = CC_DESIGN_PERSON_AND_ORGANIZATION_ASSIGNMENT ( #235, #181, ( #229 ) ) ;
#110 = LINE ( 'NONE', #222, #99 ) ;
#111 = DIRECTION ( 'NONE',  ( 1.000000000000000000, 0.000000000000000000, 0.000000000000000000 ) ) ;
#112 = EDGE_LOOP ( 'NONE', ( #103, #245 ) ) ;
#113 = CARTESIAN_POINT ( 'NONE',  ( 0.000000000000000000, 0.000000000000000000, 0.000000000000000000 ) ) ;
#114 = MECHANICAL_CONTEXT ( 'NONE', #65, 'mechanical' ) ;
#115 = PERSON_AND_ORGANIZATION_ROLE ( 'design_owner' ) ;
#116 = DIRECTION ( 'NONE',  ( -0.000000000000000000, -0.000000000000000000, -1.000000000000000000 ) ) ;
#117 = CARTESIAN_POINT ( 'NONE',  ( 0.000000000000000000, 0.000000000000000000, 3.000000000000000000 ) ) ;
#118 = CARTESIAN_POINT ( 'NONE',  ( 0.000000000000000000, 0.000000000000000000, 3.000000000000000000 ) ) ;
#119 = EDGE_CURVE ( 'NONE', #145, #162, #64, .T. ) ;
#120 = CARTESIAN_POINT ( 'NONE',  ( 3.000000000000000444, 3.673940397442060361E-16, 0.000000000000000000 ) ) ;
#121 = APPLICATION_CONTEXT ( 'configuration controlled 3d designs of mechanical parts and assemblies' ) ;
#122 = CALENDAR_DATE ( 2022, 7, 7 ) ;
#123 = DATE_AND_TIME ( #218, #225 ) ;
#124 = ADVANCED_FACE ( 'NONE', ( #100 ), #253, .T. ) ;
#125 = APPROVAL_PERSON_ORGANIZATION ( #236, #242, #200 ) ;
#126 = ADVANCED_FACE ( 'NONE', ( #71 ), #241, .T. ) ;
#127 = APPROVAL_ROLE ( '' ) ;
#128 = DIRECTION ( 'NONE',  ( 1.000000000000000000, 0.000000000000000000, -0.000000000000000000 ) ) ;
#129 = CARTESIAN_POINT ( 'NONE',  ( 0.000000000000000000, 0.000000000000000000, 203.0000000000000000 ) ) ;
#130 = PLANE ( 'NONE',  #102 ) ;
#131 = VECTOR ( 'NONE', #10, 1000.000000000000000 ) ;
#132 = PERSON_AND_ORGANIZATION ( #27, #240 ) ;
#133 = ORIENTED_EDGE ( 'NONE', *, *, #220, .F. ) ;
#134 = ORIENTED_EDGE ( 'NONE', *, *, #119, .T. ) ;
#135 = ADVANCED_FACE ( 'NONE', ( #86 ), #130, .F. ) ;
#136 = DIRECTION ( 'NONE',  ( 1.000000000000000000, 0.000000000000000000, 0.000000000000000000 ) ) ;
#137 = AXIS2_PLACEMENT_3D ( 'NONE', #7, #226, #160 ) ;
#138 = PLANE ( 'NONE',  #107 ) ;
#139 = PERSON_AND_ORGANIZATION ( #27, #240 ) ;
#140 = APPROVAL_DATE_TIME ( #156, #242 ) ;
#141 = UNCERTAINTY_MEASURE_WITH_UNIT (LENGTH_MEASURE( 1.000000000000000082E-05 ), #209, 'distance_accuracy_value', 'NONE');
#142 = APPROVAL_DATE_TIME ( #66, #88 ) ;
#143 = DIRECTION ( 'NONE',  ( 0.000000000000000000, 0.000000000000000000, 1.000000000000000000 ) ) ;
#144 = CARTESIAN_POINT ( 'NONE',  ( -1.500000000000000222, 0.000000000000000000, 3.000000000000000000 ) ) ;
#145 = VERTEX_POINT ( 'NONE', #11 ) ;
#146 = EDGE_CURVE ( 'NONE', #13, #212, #158, .T. ) ;
#147 = DIRECTION ( 'NONE',  ( -0.000000000000000000, -0.000000000000000000, -1.000000000000000000 ) ) ;
#148 = APPROVAL_PERSON_ORGANIZATION ( #87, #4, #224 ) ;
#149 =( NAMED_UNIT ( * ) PLANE_ANGLE_UNIT ( ) SI_UNIT ( $, .RADIAN. ) );
#150 = LINE ( 'NONE', #186, #106 ) ;
#151 = MANIFOLD_SOLID_BREP ( 'Pøidat vysunutím3', #43 ) ;
#152 = ORIENTED_EDGE ( 'NONE', *, *, #184, .F. ) ;
#153 = DIRECTION ( 'NONE',  ( 1.000000000000000000, 0.000000000000000000, 0.000000000000000000 ) ) ;
#154 = FACE_OUTER_BOUND ( 'NONE', #165, .T. ) ;
#155 = CARTESIAN_POINT ( 'NONE',  ( -3.000000000000000444, 0.000000000000000000, 3.000000000000000000 ) ) ;
#156 = DATE_AND_TIME ( #24, #47 ) ;
#157 = COORDINATED_UNIVERSAL_TIME_OFFSET ( 1, 0, .AHEAD. ) ;
#158 = CIRCLE ( 'NONE', #239, 1.500000000000000222 ) ;
#159 = AXIS2_PLACEMENT_3D ( 'NONE', #205, #191, #249 ) ;
#160 = DIRECTION ( 'NONE',  ( 1.000000000000000000, 0.000000000000000000, 0.000000000000000000 ) ) ;
#161 = CALENDAR_DATE ( 2022, 7, 7 ) ;
#162 = VERTEX_POINT ( 'NONE', #206 ) ;
#163 = DIRECTION ( 'NONE',  ( 1.000000000000000000, 0.000000000000000000, 0.000000000000000000 ) ) ;
#164 = CC_DESIGN_PERSON_AND_ORGANIZATION_ASSIGNMENT ( #23, #104, ( #92 ) ) ;
#165 = EDGE_LOOP ( 'NONE', ( #230, #134 ) ) ;
#166 = LOCAL_TIME ( 19, 56, 52.00000000000000000, #15 ) ;
#167 = DIRECTION ( 'NONE',  ( -1.000000000000000000, 0.000000000000000000, 0.000000000000000000 ) ) ;
#168 = CYLINDRICAL_SURFACE ( 'NONE', #211, 3.000000000000000444 ) ;
#169 =( NAMED_UNIT ( * ) SI_UNIT ( $, .STERADIAN. ) SOLID_ANGLE_UNIT ( ) );
#170 = ORIENTED_EDGE ( 'NONE', *, *, #219, .T. ) ;
#171 = CARTESIAN_POINT ( 'NONE',  ( 1.500000000000000222, 1.836970198721030181E-16, 3.000000000000000000 ) ) ;
#172 = ORIENTED_EDGE ( 'NONE', *, *, #213, .F. ) ;
#173 = CIRCLE ( 'NONE', #36, 1.500000000000000222 ) ;
#174 = DIRECTION ( 'NONE',  ( 1.000000000000000000, 0.000000000000000000, 0.000000000000000000 ) ) ;
#175 = CARTESIAN_POINT ( 'NONE',  ( -3.000000000000000444, 0.000000000000000000, 0.000000000000000000 ) ) ;
#176 = ORIENTED_EDGE ( 'NONE', *, *, #201, .F. ) ;
#177 = AXIS2_PLACEMENT_3D ( 'NONE', #118, #196, #174 ) ;
#178 = EDGE_LOOP ( 'NONE', ( #176, #190, #233, #248 ) ) ;
#179 = LOCAL_TIME ( 19, 56, 52.00000000000000000, #61 ) ;
#180 = PERSON_AND_ORGANIZATION_ROLE ( 'design_supplier' ) ;
#181 = PERSON_AND_ORGANIZATION_ROLE ( 'classification_officer' ) ;
#182 = AXIS2_PLACEMENT_3D ( 'NONE', #9, #90, #163 ) ;
#183 = LOCAL_TIME ( 19, 56, 52.00000000000000000, #29 ) ;
#184 = EDGE_CURVE ( 'NONE', #212, #251, #30, .T. ) ;
#185 = CC_DESIGN_SECURITY_CLASSIFICATION ( #229, ( #92 ) ) ;
#186 = CARTESIAN_POINT ( 'NONE',  ( 1.500000000000000222, 1.836970198721030181E-16, 203.0000000000000000 ) ) ;
#187 = DIRECTION ( 'NONE',  ( 0.000000000000000000, 0.000000000000000000, 1.000000000000000000 ) ) ;
#188 = CIRCLE ( 'NONE', #203, 3.000000000000000444 ) ;
#189 =( GEOMETRIC_REPRESENTATION_CONTEXT ( 3 ) GLOBAL_UNCERTAINTY_ASSIGNED_CONTEXT ( ( #141 ) ) GLOBAL_UNIT_ASSIGNED_CONTEXT ( ( #209, #149, #169 ) ) REPRESENTATION_CONTEXT ( 'NONE', 'WORKASPACE' ) );
#190 = ORIENTED_EDGE ( 'NONE', *, *, #72, .F. ) ;
#191 = DIRECTION ( 'NONE',  ( 0.000000000000000000, 0.000000000000000000, 1.000000000000000000 ) ) ;
#192 = DIRECTION ( 'NONE',  ( 0.000000000000000000, 0.000000000000000000, 1.000000000000000000 ) ) ;
#193 = ORIENTED_EDGE ( 'NONE', *, *, #146, .F. ) ;
#194 = APPROVAL_STATUS ( 'not_yet_approved' ) ;
#195 = DIRECTION ( 'NONE',  ( -1.000000000000000000, 0.000000000000000000, 0.000000000000000000 ) ) ;
#196 = DIRECTION ( 'NONE',  ( 0.000000000000000000, 0.000000000000000000, 1.000000000000000000 ) ) ;
#197 = DIRECTION ( 'NONE',  ( -0.000000000000000000, -0.000000000000000000, -1.000000000000000000 ) ) ;
#198 = CARTESIAN_POINT ( 'NONE',  ( 0.000000000000000000, 0.000000000000000000, 0.000000000000000000 ) ) ;
#199 = DATE_AND_TIME ( #122, #179 ) ;
#200 = APPROVAL_ROLE ( '' ) ;
#201 = EDGE_CURVE ( 'NONE', #145, #70, #110, .T. ) ;
#202 = CC_DESIGN_APPROVAL ( #88, ( #229 ) ) ;
#203 = AXIS2_PLACEMENT_3D ( 'NONE', #215, #14, #95 ) ;
#204 = CARTESIAN_POINT ( 'NONE',  ( 0.000000000000000000, 0.000000000000000000, 203.0000000000000000 ) ) ;
#205 = CARTESIAN_POINT ( 'NONE',  ( 0.000000000000000000, 0.000000000000000000, 203.0000000000000000 ) ) ;
#206 = CARTESIAN_POINT ( 'NONE',  ( -3.000000000000000444, 0.000000000000000000, 3.000000000000000000 ) ) ;
#207 = EDGE_CURVE ( 'NONE', #55, #251, #173, .T. ) ;
#208 = AXIS2_PLACEMENT_3D ( 'NONE', #117, #17, #136 ) ;
#209 =( LENGTH_UNIT ( ) NAMED_UNIT ( * ) SI_UNIT ( .MILLI., .METRE. ) );
#210 = PRODUCT_RELATED_PRODUCT_CATEGORY ( 'detail', '', ( #85 ) ) ;
#211 = AXIS2_PLACEMENT_3D ( 'NONE', #228, #250, #67 ) ;
#212 = VERTEX_POINT ( 'NONE', #93 ) ;
#213 = EDGE_CURVE ( 'NONE', #251, #55, #237, .T. ) ;
#214 = EDGE_LOOP ( 'NONE', ( #53, #133, #89, #57 ) ) ;
#215 = CARTESIAN_POINT ( 'NONE',  ( 0.000000000000000000, 0.000000000000000000, 0.000000000000000000 ) ) ;
#216 = CYLINDRICAL_SURFACE ( 'NONE', #79, 3.000000000000000444 ) ;
#217 = AXIS2_PLACEMENT_3D ( 'NONE', #198, #98, #153 ) ;
#218 = CALENDAR_DATE ( 2022, 7, 7 ) ;
#219 = EDGE_CURVE ( 'NONE', #13, #55, #150, .T. ) ;
#220 = EDGE_CURVE ( 'NONE', #212, #13, #247, .T. ) ;
#221 = SHAPE_DEFINITION_REPRESENTATION ( #26, #84 ) ;
#222 = CARTESIAN_POINT ( 'NONE',  ( 3.000000000000000444, 3.673940397442060361E-16, 3.000000000000000000 ) ) ;
#223 = DIRECTION ( 'NONE',  ( -1.000000000000000000, 0.000000000000000000, 0.000000000000000000 ) ) ;
#224 = APPROVAL_ROLE ( '' ) ;
#225 = LOCAL_TIME ( 19, 56, 52.00000000000000000, #157 ) ;
#226 = DIRECTION ( 'NONE',  ( 0.000000000000000000, 0.000000000000000000, 1.000000000000000000 ) ) ;
#227 = EDGE_LOOP ( 'NONE', ( #60, #101, #35, #21 ) ) ;
#228 = CARTESIAN_POINT ( 'NONE',  ( 0.000000000000000000, 0.000000000000000000, 3.000000000000000000 ) ) ;
#229 = SECURITY_CLASSIFICATION ( '', '', #6 ) ;
#230 = ORIENTED_EDGE ( 'NONE', *, *, #72, .T. ) ;
#231 = CARTESIAN_POINT ( 'NONE',  ( 0.000000000000000000, 0.000000000000000000, 203.0000000000000000 ) ) ;
#232 = AXIS2_PLACEMENT_3D ( 'NONE', #129, #147, #167 ) ;
#233 = ORIENTED_EDGE ( 'NONE', *, *, #28, .T. ) ;
#234 = PRODUCT_DEFINITION ( 'NEZNÁMÝ', '', #92, #31 ) ;
#235 = PERSON_AND_ORGANIZATION ( #27, #240 ) ;
#236 = PERSON_AND_ORGANIZATION ( #27, #240 ) ;
#237 = CIRCLE ( 'NONE', #182, 1.500000000000000222 ) ;
#238 = ADVANCED_FACE ( 'NONE', ( #33 ), #168, .T. ) ;
#239 = AXIS2_PLACEMENT_3D ( 'NONE', #204, #143, #32 ) ;
#240 = ORGANIZATION ( 'NEURÈENÝ', 'NEURÈENÝ', '' ) ;
#241 = PLANE ( 'NONE',  #159 ) ;
#242 = APPROVAL ( #82, 'NEURÈENÝ' ) ;
#243 = APPROVAL_STATUS ( 'not_yet_approved' ) ;
#244 = DIRECTION ( 'NONE',  ( -0.000000000000000000, -0.000000000000000000, -1.000000000000000000 ) ) ;
#245 = ORIENTED_EDGE ( 'NONE', *, *, #81, .F. ) ;
#246 = CYLINDRICAL_SURFACE ( 'NONE', #232, 1.500000000000000222 ) ;
#247 = CIRCLE ( 'NONE', #137, 1.500000000000000222 ) ;
#248 = ORIENTED_EDGE ( 'NONE', *, *, #37, .T. ) ;
#249 = DIRECTION ( 'NONE',  ( 1.000000000000000000, 0.000000000000000000, -0.000000000000000000 ) ) ;
#250 = DIRECTION ( 'NONE',  ( -0.000000000000000000, -0.000000000000000000, -1.000000000000000000 ) ) ;
#251 = VERTEX_POINT ( 'NONE', #144 ) ;
#252 = APPROVAL_PERSON_ORGANIZATION ( #139, #88, #127 ) ;
#253 = CYLINDRICAL_SURFACE ( 'NONE', #49, 1.500000000000000222 ) ;
#254 = EDGE_LOOP ( 'NONE', ( #172, #39 ) ) ;
#255 = ADVANCED_FACE ( 'NONE', ( #50 ), #246, .T. ) ;
ENDSEC;
END-ISO-10303-21;
