ISO-10303-21;
HEADER;
FILE_DESCRIPTION (( 'STEP AP203' ),
    '1' );
FILE_NAME ('a8e7.STEP',
    '2022-07-07T17:21:06',
    ( '' ),
    ( '' ),
    'SwSTEP 2.0',
    'SolidWorks 2019',
    '' );
FILE_SCHEMA (( 'CONFIG_CONTROL_DESIGN' ));
ENDSEC;

DATA;
#1 = CARTESIAN_POINT ( 'NONE',  ( 0.000000000000000000, 0.000000000000000000, 0.000000000000000000 ) ) ;
#2 = DIRECTION ( 'NONE',  ( -1.000000000000000000, 0.000000000000000000, 0.000000000000000000 ) ) ;
#3 = CARTESIAN_POINT ( 'NONE',  ( 0.000000000000000000, 0.000000000000000000, 7.000000000000000000 ) ) ;
#4 = PRODUCT_DEFINITION_SHAPE ( 'NONE', 'NONE',  #204 ) ;
#5 = CIRCLE ( 'NONE', #149, 5.750000000000000000 ) ;
#6 = EDGE_CURVE ( 'NONE', #86, #46, #113, .T. ) ;
#7 = ORIENTED_EDGE ( 'NONE', *, *, #126, .F. ) ;
#8 = APPROVAL ( #73, 'NEURÈENÝ' ) ;
#9 = CARTESIAN_POINT ( 'NONE',  ( 0.000000000000000000, 0.000000000000000000, 0.000000000000000000 ) ) ;
#10 = COORDINATED_UNIVERSAL_TIME_OFFSET ( 1, 0, .AHEAD. ) ;
#11 = VERTEX_POINT ( 'NONE', #197 ) ;
#12 = DIRECTION ( 'NONE',  ( 1.000000000000000000, 0.000000000000000000, 0.000000000000000000 ) ) ;
#13 = PERSON_AND_ORGANIZATION ( #98, #96 ) ;
#14 = DIRECTION ( 'NONE',  ( 0.000000000000000000, 0.000000000000000000, 1.000000000000000000 ) ) ;
#15 = CC_DESIGN_DATE_AND_TIME_ASSIGNMENT ( #29, #184, ( #204 ) ) ;
#16 = MANIFOLD_SOLID_BREP ( 'Pøidat vysunutím3', #252 ) ;
#17 = CARTESIAN_POINT ( 'NONE',  ( 0.000000000000000000, 0.000000000000000000, 7.000000000000000000 ) ) ;
#18 = CARTESIAN_POINT ( 'NONE',  ( -5.750000000000000000, 0.000000000000000000, 257.0000000000000000 ) ) ;
#19 = DIRECTION ( 'NONE',  ( -0.000000000000000000, -0.000000000000000000, -1.000000000000000000 ) ) ;
#20 = EDGE_CURVE ( 'NONE', #88, #11, #138, .T. ) ;
#21 = FACE_OUTER_BOUND ( 'NONE', #230, .T. ) ;
#22 = CC_DESIGN_APPROVAL ( #225, ( #50 ) ) ;
#23 = ORIENTED_EDGE ( 'NONE', *, *, #68, .T. ) ;
#24 = ORIENTED_EDGE ( 'NONE', *, *, #92, .F. ) ;
#25 = CIRCLE ( 'NONE', #83, 5.750000000000000000 ) ;
#26 = APPROVAL_STATUS ( 'not_yet_approved' ) ;
#27 = APPROVAL_STATUS ( 'not_yet_approved' ) ;
#28 = EDGE_LOOP ( 'NONE', ( #7, #80, #241, #119 ) ) ;
#29 = DATE_AND_TIME ( #57, #123 ) ;
#30 = CARTESIAN_POINT ( 'NONE',  ( 9.000000000000000000, 1.102182119232617714E-15, 7.000000000000000000 ) ) ;
#31 = PERSON_AND_ORGANIZATION_ROLE ( 'design_owner' ) ;
#32 = CARTESIAN_POINT ( 'NONE',  ( 5.750000000000000000, 7.041719095097280880E-16, 7.000000000000000000 ) ) ;
#33 = DIRECTION ( 'NONE',  ( 0.000000000000000000, 0.000000000000000000, 1.000000000000000000 ) ) ;
#34 = ORIENTED_EDGE ( 'NONE', *, *, #244, .T. ) ;
#35 = CIRCLE ( 'NONE', #137, 9.000000000000000000 ) ;
#36 = CARTESIAN_POINT ( 'NONE',  ( -9.000000000000000000, 0.000000000000000000, 7.000000000000000000 ) ) ;
#37 = UNCERTAINTY_MEASURE_WITH_UNIT (LENGTH_MEASURE( 1.000000000000000082E-05 ), #217, 'distance_accuracy_value', 'NONE');
#38 = ADVANCED_BREP_SHAPE_REPRESENTATION ( 'a8e7', ( #16, #255 ), #163 ) ;
#39 = DIRECTION ( 'NONE',  ( -1.000000000000000000, 0.000000000000000000, 0.000000000000000000 ) ) ;
#40 = ORIENTED_EDGE ( 'NONE', *, *, #238, .F. ) ;
#41 = EDGE_CURVE ( 'NONE', #70, #86, #219, .T. ) ;
#42 = DIRECTION ( 'NONE',  ( 1.000000000000000000, 0.000000000000000000, 0.000000000000000000 ) ) ;
#43 = DIRECTION ( 'NONE',  ( 1.000000000000000000, 0.000000000000000000, 0.000000000000000000 ) ) ;
#44 = VECTOR ( 'NONE', #188, 1000.000000000000000 ) ;
#45 = CARTESIAN_POINT ( 'NONE',  ( -5.750000000000000000, 0.000000000000000000, 257.0000000000000000 ) ) ;
#46 = VERTEX_POINT ( 'NONE', #194 ) ;
#47 = EDGE_CURVE ( 'NONE', #88, #146, #5, .T. ) ;
#48 = ORIENTED_EDGE ( 'NONE', *, *, #20, .T. ) ;
#49 = APPROVAL_DATE_TIME ( #245, #225 ) ;
#50 = PRODUCT_DEFINITION_FORMATION_WITH_SPECIFIED_SOURCE ( 'LIBOVOLNÝ', '', #122, .NOT_KNOWN. ) ;
#51 = EDGE_CURVE ( 'NONE', #208, #70, #35, .T. ) ;
#52 = DATE_TIME_ROLE ( 'classification_date' ) ;
#53 = DIRECTION ( 'NONE',  ( -0.000000000000000000, -0.000000000000000000, -1.000000000000000000 ) ) ;
#54 = PERSON_AND_ORGANIZATION ( #98, #96 ) ;
#55 = APPLICATION_CONTEXT ( 'configuration controlled 3d designs of mechanical parts and assemblies' ) ;
#56 = CC_DESIGN_APPROVAL ( #89, ( #203 ) ) ;
#57 = CALENDAR_DATE ( 2022, 7, 7 ) ;
#58 = CARTESIAN_POINT ( 'NONE',  ( 0.000000000000000000, 0.000000000000000000, 257.0000000000000000 ) ) ;
#59 = EDGE_LOOP ( 'NONE', ( #77, #210, #34, #185 ) ) ;
#60 = FACE_OUTER_BOUND ( 'NONE', #246, .T. ) ;
#61 = ORIENTED_EDGE ( 'NONE', *, *, #244, .F. ) ;
#62 = DIRECTION ( 'NONE',  ( 0.000000000000000000, 0.000000000000000000, 1.000000000000000000 ) ) ;
#63 = CARTESIAN_POINT ( 'NONE',  ( -9.000000000000000000, 0.000000000000000000, 7.000000000000000000 ) ) ;
#64 = AXIS2_PLACEMENT_3D ( 'NONE', #134, #175, #76 ) ;
#65 = APPLICATION_CONTEXT ( 'configuration controlled 3d designs of mechanical parts and assemblies' ) ;
#66 = COORDINATED_UNIVERSAL_TIME_OFFSET ( 1, 0, .AHEAD. ) ;
#67 = ADVANCED_FACE ( 'NONE', ( #82 ), #139, .T. ) ;
#68 = EDGE_CURVE ( 'NONE', #146, #88, #150, .T. ) ;
#69 = PERSON_AND_ORGANIZATION_ROLE ( 'design_supplier' ) ;
#70 = VERTEX_POINT ( 'NONE', #63 ) ;
#71 = MECHANICAL_CONTEXT ( 'NONE', #55, 'mechanical' ) ;
#72 = CYLINDRICAL_SURFACE ( 'NONE', #143, 9.000000000000000000 ) ;
#73 = APPROVAL_STATUS ( 'not_yet_approved' ) ;
#74 = CARTESIAN_POINT ( 'NONE',  ( 0.000000000000000000, 0.000000000000000000, 0.000000000000000000 ) ) ;
#75 = PERSON_AND_ORGANIZATION_ROLE ( 'creator' ) ;
#76 = DIRECTION ( 'NONE',  ( 1.000000000000000000, 0.000000000000000000, 0.000000000000000000 ) ) ;
#77 = ORIENTED_EDGE ( 'NONE', *, *, #51, .F. ) ;
#78 = FACE_OUTER_BOUND ( 'NONE', #28, .T. ) ;
#79 = ORIENTED_EDGE ( 'NONE', *, *, #47, .F. ) ;
#80 = ORIENTED_EDGE ( 'NONE', *, *, #115, .F. ) ;
#81 = DIRECTION ( 'NONE',  ( -0.000000000000000000, -0.000000000000000000, -1.000000000000000000 ) ) ;
#82 = FACE_OUTER_BOUND ( 'NONE', #59, .T. ) ;
#83 = AXIS2_PLACEMENT_3D ( 'NONE', #168, #14, #106 ) ;
#84 = ADVANCED_FACE ( 'NONE', ( #21 ), #102, .T. ) ;
#85 = DIRECTION ( 'NONE',  ( 1.000000000000000000, 0.000000000000000000, 0.000000000000000000 ) ) ;
#86 = VERTEX_POINT ( 'NONE', #196 ) ;
#87 = DATE_AND_TIME ( #231, #164 ) ;
#88 = VERTEX_POINT ( 'NONE', #45 ) ;
#89 = APPROVAL ( #27, 'NEURÈENÝ' ) ;
#90 = DIRECTION ( 'NONE',  ( 0.000000000000000000, 0.000000000000000000, 1.000000000000000000 ) ) ;
#91 = APPROVAL_DATE_TIME ( #87, #89 ) ;
#92 = EDGE_CURVE ( 'NONE', #146, #147, #181, .T. ) ;
#93 = COORDINATED_UNIVERSAL_TIME_OFFSET ( 1, 0, .AHEAD. ) ;
#94 = DIRECTION ( 'NONE',  ( 0.000000000000000000, 0.000000000000000000, 1.000000000000000000 ) ) ;
#95 = CARTESIAN_POINT ( 'NONE',  ( 5.750000000000000000, 7.041719095097280880E-16, 257.0000000000000000 ) ) ;
#96 = ORGANIZATION ( 'NEURÈENÝ', 'NEURÈENÝ', '' ) ;
#97 = EDGE_LOOP ( 'NONE', ( #135, #23 ) ) ;
#98 = PERSON ( 'NEURÈENÝ', 'NEURÈENÝ', 'NEURÈENÝ', ('NEURÈENÝ'), ('NEURÈENÝ'), ('NEURÈENÝ') ) ;
#99 = CARTESIAN_POINT ( 'NONE',  ( 0.000000000000000000, 0.000000000000000000, 257.0000000000000000 ) ) ;
#100 = EDGE_LOOP ( 'NONE', ( #226, #61 ) ) ;
#101 = LOCAL_TIME ( 19, 21, 6.000000000000000000, #110 ) ;
#102 = CYLINDRICAL_SURFACE ( 'NONE', #218, 5.750000000000000000 ) ;
#103 = ORIENTED_EDGE ( 'NONE', *, *, #20, .F. ) ;
#104 = CC_DESIGN_PERSON_AND_ORGANIZATION_ASSIGNMENT ( #107, #148, ( #50 ) ) ;
#105 = APPROVAL_ROLE ( '' ) ;
#106 = DIRECTION ( 'NONE',  ( 1.000000000000000000, 0.000000000000000000, 0.000000000000000000 ) ) ;
#107 = PERSON_AND_ORGANIZATION ( #98, #96 ) ;
#108 = DIRECTION ( 'NONE',  ( 0.000000000000000000, 0.000000000000000000, 1.000000000000000000 ) ) ;
#109 = ADVANCED_FACE ( 'NONE', ( #190, #60 ), #112, .T. ) ;
#110 = COORDINATED_UNIVERSAL_TIME_OFFSET ( 1, 0, .AHEAD. ) ;
#111 = CARTESIAN_POINT ( 'NONE',  ( 0.000000000000000000, 0.000000000000000000, 7.000000000000000000 ) ) ;
#112 = PLANE ( 'NONE',  #254 ) ;
#113 = CIRCLE ( 'NONE', #178, 9.000000000000000000 ) ;
#114 = CARTESIAN_POINT ( 'NONE',  ( 0.000000000000000000, 0.000000000000000000, 0.000000000000000000 ) ) ;
#115 = EDGE_CURVE ( 'NONE', #70, #208, #142, .T. ) ;
#116 = FACE_OUTER_BOUND ( 'NONE', #100, .T. ) ;
#117 = CIRCLE ( 'NONE', #64, 5.750000000000000000 ) ;
#118 = DIRECTION ( 'NONE',  ( -0.000000000000000000, -0.000000000000000000, -1.000000000000000000 ) ) ;
#119 = ORIENTED_EDGE ( 'NONE', *, *, #6, .T. ) ;
#120 = CARTESIAN_POINT ( 'NONE',  ( 0.000000000000000000, 0.000000000000000000, 7.000000000000000000 ) ) ;
#121 = AXIS2_PLACEMENT_3D ( 'NONE', #1, #94, #173 ) ;
#122 = PRODUCT ( 'a8e7', 'a8e7', '', ( #71 ) ) ;
#123 = LOCAL_TIME ( 19, 21, 6.000000000000000000, #66 ) ;
#124 = EDGE_LOOP ( 'NONE', ( #182, #153, #199, #103 ) ) ;
#125 = PRODUCT_RELATED_PRODUCT_CATEGORY ( 'detail', '', ( #122 ) ) ;
#126 = EDGE_CURVE ( 'NONE', #208, #46, #191, .T. ) ;
#127 = ORIENTED_EDGE ( 'NONE', *, *, #51, .T. ) ;
#128 = PERSON_AND_ORGANIZATION ( #98, #96 ) ;
#129 = PLANE ( 'NONE',  #121 ) ;
#130 = APPLICATION_PROTOCOL_DEFINITION ( 'international standard', 'config_control_design', 1994, #65 ) ;
#131 = FACE_OUTER_BOUND ( 'NONE', #97, .T. ) ;
#132 = CC_DESIGN_APPROVAL ( #8, ( #204 ) ) ;
#133 = FACE_OUTER_BOUND ( 'NONE', #124, .T. ) ;
#134 = CARTESIAN_POINT ( 'NONE',  ( 0.000000000000000000, 0.000000000000000000, 7.000000000000000000 ) ) ;
#135 = ORIENTED_EDGE ( 'NONE', *, *, #47, .T. ) ;
#136 = DIRECTION ( 'NONE',  ( -0.000000000000000000, -0.000000000000000000, -1.000000000000000000 ) ) ;
#137 = AXIS2_PLACEMENT_3D ( 'NONE', #120, #198, #160 ) ;
#138 = LINE ( 'NONE', #18, #240 ) ;
#139 = CYLINDRICAL_SURFACE ( 'NONE', #223, 9.000000000000000000 ) ;
#140 = ORIENTED_EDGE ( 'NONE', *, *, #162, .T. ) ;
#141 = VECTOR ( 'NONE', #53, 1000.000000000000000 ) ;
#142 = CIRCLE ( 'NONE', #166, 9.000000000000000000 ) ;
#143 = AXIS2_PLACEMENT_3D ( 'NONE', #111, #253, #157 ) ;
#144 = CIRCLE ( 'NONE', #174, 9.000000000000000000 ) ;
#145 = CC_DESIGN_DATE_AND_TIME_ASSIGNMENT ( #229, #52, ( #203 ) ) ;
#146 = VERTEX_POINT ( 'NONE', #216 ) ;
#147 = VERTEX_POINT ( 'NONE', #32 ) ;
#148 = PERSON_AND_ORGANIZATION_ROLE ( 'creator' ) ;
#149 = AXIS2_PLACEMENT_3D ( 'NONE', #99, #62, #43 ) ;
#150 = CIRCLE ( 'NONE', #243, 5.750000000000000000 ) ;
#151 = APPLICATION_PROTOCOL_DEFINITION ( 'international standard', 'config_control_design', 1994, #55 ) ;
#152 = APPROVAL_PERSON_ORGANIZATION ( #54, #89, #105 ) ;
#153 = ORIENTED_EDGE ( 'NONE', *, *, #92, .T. ) ;
#154 = CC_DESIGN_PERSON_AND_ORGANIZATION_ASSIGNMENT ( #207, #75, ( #204 ) ) ;
#155 = PERSON_AND_ORGANIZATION ( #98, #96 ) ;
#156 = DIRECTION ( 'NONE',  ( 0.000000000000000000, 0.000000000000000000, 1.000000000000000000 ) ) ;
#157 = DIRECTION ( 'NONE',  ( -1.000000000000000000, 0.000000000000000000, 0.000000000000000000 ) ) ;
#158 =( NAMED_UNIT ( * ) PLANE_ANGLE_UNIT ( ) SI_UNIT ( $, .RADIAN. ) );
#159 = PLANE ( 'NONE',  #247 ) ;
#160 = DIRECTION ( 'NONE',  ( 1.000000000000000000, 0.000000000000000000, 0.000000000000000000 ) ) ;
#161 = DIRECTION ( 'NONE',  ( 0.000000000000000000, 0.000000000000000000, 1.000000000000000000 ) ) ;
#162 = EDGE_CURVE ( 'NONE', #11, #147, #117, .T. ) ;
#163 =( GEOMETRIC_REPRESENTATION_CONTEXT ( 3 ) GLOBAL_UNCERTAINTY_ASSIGNED_CONTEXT ( ( #37 ) ) GLOBAL_UNIT_ASSIGNED_CONTEXT ( ( #217, #158, #186 ) ) REPRESENTATION_CONTEXT ( 'NONE', 'WORKASPACE' ) );
#164 = LOCAL_TIME ( 19, 21, 6.000000000000000000, #10 ) ;
#165 = CALENDAR_DATE ( 2022, 7, 7 ) ;
#166 = AXIS2_PLACEMENT_3D ( 'NONE', #17, #156, #12 ) ;
#167 = SHAPE_DEFINITION_REPRESENTATION ( #4, #38 ) ;
#168 = CARTESIAN_POINT ( 'NONE',  ( 0.000000000000000000, 0.000000000000000000, 7.000000000000000000 ) ) ;
#169 = DATE_AND_TIME ( #233, #101 ) ;
#170 = CARTESIAN_POINT ( 'NONE',  ( 0.000000000000000000, 0.000000000000000000, 257.0000000000000000 ) ) ;
#171 = CC_DESIGN_PERSON_AND_ORGANIZATION_ASSIGNMENT ( #155, #69, ( #50 ) ) ;
#172 = DIRECTION ( 'NONE',  ( 0.000000000000000000, 0.000000000000000000, 1.000000000000000000 ) ) ;
#173 = DIRECTION ( 'NONE',  ( 1.000000000000000000, 0.000000000000000000, -0.000000000000000000 ) ) ;
#174 = AXIS2_PLACEMENT_3D ( 'NONE', #74, #108, #215 ) ;
#175 = DIRECTION ( 'NONE',  ( 0.000000000000000000, 0.000000000000000000, 1.000000000000000000 ) ) ;
#176 = ORIENTED_EDGE ( 'NONE', *, *, #115, .T. ) ;
#177 = CC_DESIGN_PERSON_AND_ORGANIZATION_ASSIGNMENT ( #128, #209, ( #203 ) ) ;
#178 = AXIS2_PLACEMENT_3D ( 'NONE', #114, #192, #42 ) ;
#179 = ADVANCED_FACE ( 'NONE', ( #78 ), #72, .T. ) ;
#180 = AXIS2_PLACEMENT_3D ( 'NONE', #170, #212, #236 ) ;
#181 = LINE ( 'NONE', #95, #44 ) ;
#182 = ORIENTED_EDGE ( 'NONE', *, *, #68, .F. ) ;
#183 = VECTOR ( 'NONE', #118, 1000.000000000000000 ) ;
#184 = DATE_TIME_ROLE ( 'creation_date' ) ;
#185 = ORIENTED_EDGE ( 'NONE', *, *, #41, .F. ) ;
#186 =( NAMED_UNIT ( * ) SI_UNIT ( $, .STERADIAN. ) SOLID_ANGLE_UNIT ( ) );
#187 = COORDINATED_UNIVERSAL_TIME_OFFSET ( 1, 0, .AHEAD. ) ;
#188 = DIRECTION ( 'NONE',  ( -0.000000000000000000, -0.000000000000000000, -1.000000000000000000 ) ) ;
#189 = PERSON_AND_ORGANIZATION ( #98, #96 ) ;
#190 = FACE_BOUND ( 'NONE', #205, .T. ) ;
#191 = LINE ( 'NONE', #30, #141 ) ;
#192 = DIRECTION ( 'NONE',  ( 0.000000000000000000, 0.000000000000000000, 1.000000000000000000 ) ) ;
#193 = CC_DESIGN_SECURITY_CLASSIFICATION ( #203, ( #50 ) ) ;
#194 = CARTESIAN_POINT ( 'NONE',  ( 9.000000000000000000, 1.102182119232617714E-15, 0.000000000000000000 ) ) ;
#195 = CC_DESIGN_PERSON_AND_ORGANIZATION_ASSIGNMENT ( #250, #31, ( #122 ) ) ;
#196 = CARTESIAN_POINT ( 'NONE',  ( -9.000000000000000000, 0.000000000000000000, 0.000000000000000000 ) ) ;
#197 = CARTESIAN_POINT ( 'NONE',  ( -5.750000000000000000, 0.000000000000000000, 7.000000000000000000 ) ) ;
#198 = DIRECTION ( 'NONE',  ( 0.000000000000000000, 0.000000000000000000, 1.000000000000000000 ) ) ;
#199 = ORIENTED_EDGE ( 'NONE', *, *, #238, .T. ) ;
#200 = DIRECTION ( 'NONE',  ( 1.000000000000000000, 0.000000000000000000, 0.000000000000000000 ) ) ;
#201 = LOCAL_TIME ( 19, 21, 6.000000000000000000, #93 ) ;
#202 = DESIGN_CONTEXT ( 'detailed design', #65, 'design' ) ;
#203 = SECURITY_CLASSIFICATION ( '', '', #227 ) ;
#204 = PRODUCT_DEFINITION ( 'NEZNÁMÝ', '', #50, #202 ) ;
#205 = EDGE_LOOP ( 'NONE', ( #237, #40 ) ) ;
#206 = APPROVAL_PERSON_ORGANIZATION ( #189, #8, #235 ) ;
#207 = PERSON_AND_ORGANIZATION ( #98, #96 ) ;
#208 = VERTEX_POINT ( 'NONE', #234 ) ;
#209 = PERSON_AND_ORGANIZATION_ROLE ( 'classification_officer' ) ;
#210 = ORIENTED_EDGE ( 'NONE', *, *, #126, .T. ) ;
#211 = APPROVAL_DATE_TIME ( #169, #8 ) ;
#212 = DIRECTION ( 'NONE',  ( -0.000000000000000000, -0.000000000000000000, -1.000000000000000000 ) ) ;
#213 = APPROVAL_ROLE ( '' ) ;
#214 = APPROVAL_PERSON_ORGANIZATION ( #13, #225, #213 ) ;
#215 = DIRECTION ( 'NONE',  ( 1.000000000000000000, 0.000000000000000000, 0.000000000000000000 ) ) ;
#216 = CARTESIAN_POINT ( 'NONE',  ( 5.750000000000000000, 7.041719095097280880E-16, 257.0000000000000000 ) ) ;
#217 =( LENGTH_UNIT ( ) NAMED_UNIT ( * ) SI_UNIT ( .MILLI., .METRE. ) );
#218 = AXIS2_PLACEMENT_3D ( 'NONE', #221, #81, #39 ) ;
#219 = LINE ( 'NONE', #36, #183 ) ;
#220 = ADVANCED_FACE ( 'NONE', ( #116 ), #129, .F. ) ;
#221 = CARTESIAN_POINT ( 'NONE',  ( 0.000000000000000000, 0.000000000000000000, 257.0000000000000000 ) ) ;
#222 = CARTESIAN_POINT ( 'NONE',  ( 0.000000000000000000, 0.000000000000000000, 257.0000000000000000 ) ) ;
#223 = AXIS2_PLACEMENT_3D ( 'NONE', #3, #19, #2 ) ;
#224 = LOCAL_TIME ( 19, 21, 6.000000000000000000, #187 ) ;
#225 = APPROVAL ( #26, 'NEURÈENÝ' ) ;
#226 = ORIENTED_EDGE ( 'NONE', *, *, #6, .F. ) ;
#227 = SECURITY_CLASSIFICATION_LEVEL ( 'unclassified' ) ;
#228 = ADVANCED_FACE ( 'NONE', ( #133 ), #232, .T. ) ;
#229 = DATE_AND_TIME ( #248, #224 ) ;
#230 = EDGE_LOOP ( 'NONE', ( #24, #79, #48, #140 ) ) ;
#231 = CALENDAR_DATE ( 2022, 7, 7 ) ;
#232 = CYLINDRICAL_SURFACE ( 'NONE', #180, 5.750000000000000000 ) ;
#233 = CALENDAR_DATE ( 2022, 7, 7 ) ;
#234 = CARTESIAN_POINT ( 'NONE',  ( 9.000000000000000000, 1.102182119232617714E-15, 7.000000000000000000 ) ) ;
#235 = APPROVAL_ROLE ( '' ) ;
#236 = DIRECTION ( 'NONE',  ( -1.000000000000000000, 0.000000000000000000, 0.000000000000000000 ) ) ;
#237 = ORIENTED_EDGE ( 'NONE', *, *, #162, .F. ) ;
#238 = EDGE_CURVE ( 'NONE', #147, #11, #25, .T. ) ;
#239 = DIRECTION ( 'NONE',  ( 1.000000000000000000, 0.000000000000000000, -0.000000000000000000 ) ) ;
#240 = VECTOR ( 'NONE', #136, 1000.000000000000000 ) ;
#241 = ORIENTED_EDGE ( 'NONE', *, *, #41, .T. ) ;
#242 = ADVANCED_FACE ( 'NONE', ( #131 ), #159, .T. ) ;
#243 = AXIS2_PLACEMENT_3D ( 'NONE', #222, #161, #200 ) ;
#244 = EDGE_CURVE ( 'NONE', #46, #86, #144, .T. ) ;
#245 = DATE_AND_TIME ( #165, #201 ) ;
#246 = EDGE_LOOP ( 'NONE', ( #176, #127 ) ) ;
#247 = AXIS2_PLACEMENT_3D ( 'NONE', #58, #33, #239 ) ;
#248 = CALENDAR_DATE ( 2022, 7, 7 ) ;
#249 = DIRECTION ( 'NONE',  ( 1.000000000000000000, 0.000000000000000000, -0.000000000000000000 ) ) ;
#250 = PERSON_AND_ORGANIZATION ( #98, #96 ) ;
#251 = CARTESIAN_POINT ( 'NONE',  ( 0.000000000000000000, 0.000000000000000000, 7.000000000000000000 ) ) ;
#252 = CLOSED_SHELL ( 'NONE', ( #228, #67, #179, #109, #220, #84, #242 ) ) ;
#253 = DIRECTION ( 'NONE',  ( -0.000000000000000000, -0.000000000000000000, -1.000000000000000000 ) ) ;
#254 = AXIS2_PLACEMENT_3D ( 'NONE', #251, #90, #249 ) ;
#255 = AXIS2_PLACEMENT_3D ( 'NONE', #9, #172, #85 ) ;
ENDSEC;
END-ISO-10303-21;
