ISO-10303-21;
HEADER;
FILE_DESCRIPTION (( 'STEP AP203' ),
    '1' );
FILE_NAME ('e124.STEP',
    '2022-07-07T17:10:19',
    ( '' ),
    ( '' ),
    'SwSTEP 2.0',
    'SolidWorks 2019',
    '' );
FILE_SCHEMA (( 'CONFIG_CONTROL_DESIGN' ));
ENDSEC;

DATA;
#1 = PRODUCT_DEFINITION ( 'NEZNÁMÝ', '', #100, #50 ) ;
#2 = DIRECTION ( 'NONE',  ( 0.000000000000000000, 0.000000000000000000, 1.000000000000000000 ) ) ;
#3 = APPROVAL_PERSON_ORGANIZATION ( #186, #252, #247 ) ;
#4 = CARTESIAN_POINT ( 'NONE',  ( 0.000000000000000000, 0.000000000000000000, 257.0000000000000000 ) ) ;
#5 = DIRECTION ( 'NONE',  ( 1.000000000000000000, 0.000000000000000000, 0.000000000000000000 ) ) ;
#6 = ADVANCED_FACE ( 'NONE', ( #29 ), #143, .T. ) ;
#7 = APPROVAL_PERSON_ORGANIZATION ( #59, #129, #114 ) ;
#8 = CIRCLE ( 'NONE', #60, 11.00000000000000000 ) ;
#9 = PRODUCT_DEFINITION_SHAPE ( 'NONE', 'NONE',  #1 ) ;
#10 = PLANE ( 'NONE',  #249 ) ;
#11 = SECURITY_CLASSIFICATION ( '', '', #45 ) ;
#12 = EDGE_CURVE ( 'NONE', #166, #174, #126, .T. ) ;
#13 = FACE_OUTER_BOUND ( 'NONE', #81, .T. ) ;
#14 = APPLICATION_PROTOCOL_DEFINITION ( 'international standard', 'config_control_design', 1994, #102 ) ;
#15 = CARTESIAN_POINT ( 'NONE',  ( 0.000000000000000000, 0.000000000000000000, 0.000000000000000000 ) ) ;
#16 = CALENDAR_DATE ( 2022, 7, 7 ) ;
#17 = AXIS2_PLACEMENT_3D ( 'NONE', #237, #48, #222 ) ;
#18 = EDGE_LOOP ( 'NONE', ( #89, #245, #190, #225 ) ) ;
#19 = APPROVAL_STATUS ( 'not_yet_approved' ) ;
#20 = DIRECTION ( 'NONE',  ( 0.000000000000000000, 0.000000000000000000, 1.000000000000000000 ) ) ;
#21 = VERTEX_POINT ( 'NONE', #158 ) ;
#22 = CARTESIAN_POINT ( 'NONE',  ( 7.500000000000000000, 9.184850993605147944E-16, 257.0000000000000000 ) ) ;
#23 = CALENDAR_DATE ( 2022, 7, 7 ) ;
#24 = PERSON_AND_ORGANIZATION_ROLE ( 'classification_officer' ) ;
#25 = ORIENTED_EDGE ( 'NONE', *, *, #217, .T. ) ;
#26 = ADVANCED_FACE ( 'NONE', ( #62 ), #142, .T. ) ;
#27 = LOCAL_TIME ( 19, 10, 19.00000000000000000, #57 ) ;
#28 = DATE_AND_TIME ( #184, #200 ) ;
#29 = FACE_OUTER_BOUND ( 'NONE', #248, .T. ) ;
#30 = CC_DESIGN_DATE_AND_TIME_ASSIGNMENT ( #98, #227, ( #1 ) ) ;
#31 = ADVANCED_BREP_SHAPE_REPRESENTATION ( 'e124', ( #203, #44 ), #32 ) ;
#32 =( GEOMETRIC_REPRESENTATION_CONTEXT ( 3 ) GLOBAL_UNCERTAINTY_ASSIGNED_CONTEXT ( ( #144 ) ) GLOBAL_UNIT_ASSIGNED_CONTEXT ( ( #54, #212, #150 ) ) REPRESENTATION_CONTEXT ( 'NONE', 'WORKASPACE' ) );
#33 = CARTESIAN_POINT ( 'NONE',  ( 7.500000000000000000, 9.184850993605147944E-16, 7.000000000000000000 ) ) ;
#34 = COORDINATED_UNIVERSAL_TIME_OFFSET ( 1, 0, .AHEAD. ) ;
#35 = AXIS2_PLACEMENT_3D ( 'NONE', #214, #20, #183 ) ;
#36 = ORIENTED_EDGE ( 'NONE', *, *, #55, .F. ) ;
#37 = CARTESIAN_POINT ( 'NONE',  ( 11.00000000000000000, 1.347111479062088405E-15, 0.000000000000000000 ) ) ;
#38 = ORIENTED_EDGE ( 'NONE', *, *, #82, .T. ) ;
#39 = APPROVAL_ROLE ( '' ) ;
#40 = LINE ( 'NONE', #53, #139 ) ;
#41 = CARTESIAN_POINT ( 'NONE',  ( 0.000000000000000000, 0.000000000000000000, 0.000000000000000000 ) ) ;
#42 = CARTESIAN_POINT ( 'NONE',  ( -7.500000000000000000, 0.000000000000000000, 257.0000000000000000 ) ) ;
#43 = COORDINATED_UNIVERSAL_TIME_OFFSET ( 1, 0, .AHEAD. ) ;
#44 = AXIS2_PLACEMENT_3D ( 'NONE', #41, #91, #153 ) ;
#45 = SECURITY_CLASSIFICATION_LEVEL ( 'unclassified' ) ;
#46 = ADVANCED_FACE ( 'NONE', ( #85 ), #107, .F. ) ;
#47 = ORIENTED_EDGE ( 'NONE', *, *, #242, .F. ) ;
#48 = DIRECTION ( 'NONE',  ( 0.000000000000000000, 0.000000000000000000, 1.000000000000000000 ) ) ;
#49 = PRODUCT_RELATED_PRODUCT_CATEGORY ( 'detail', '', ( #80 ) ) ;
#50 = DESIGN_CONTEXT ( 'detailed design', #102, 'design' ) ;
#51 = CARTESIAN_POINT ( 'NONE',  ( 11.00000000000000000, 1.347111479062088405E-15, 7.000000000000000000 ) ) ;
#52 = VECTOR ( 'NONE', #110, 1000.000000000000000 ) ;
#53 = CARTESIAN_POINT ( 'NONE',  ( -11.00000000000000000, 0.000000000000000000, 7.000000000000000000 ) ) ;
#54 =( LENGTH_UNIT ( ) NAMED_UNIT ( * ) SI_UNIT ( .MILLI., .METRE. ) );
#55 = EDGE_CURVE ( 'NONE', #159, #241, #205, .T. ) ;
#56 = DIRECTION ( 'NONE',  ( 1.000000000000000000, 0.000000000000000000, 0.000000000000000000 ) ) ;
#57 = COORDINATED_UNIVERSAL_TIME_OFFSET ( 1, 0, .AHEAD. ) ;
#58 = CARTESIAN_POINT ( 'NONE',  ( 7.500000000000000000, 9.184850993605147944E-16, 257.0000000000000000 ) ) ;
#59 = PERSON_AND_ORGANIZATION ( #83, #236 ) ;
#60 = AXIS2_PLACEMENT_3D ( 'NONE', #149, #117, #97 ) ;
#61 = EDGE_CURVE ( 'NONE', #241, #159, #188, .T. ) ;
#62 = FACE_OUTER_BOUND ( 'NONE', #146, .T. ) ;
#63 = APPLICATION_CONTEXT ( 'configuration controlled 3d designs of mechanical parts and assemblies' ) ;
#64 = AXIS2_PLACEMENT_3D ( 'NONE', #15, #147, #90 ) ;
#65 = DIRECTION ( 'NONE',  ( 0.000000000000000000, 0.000000000000000000, 1.000000000000000000 ) ) ;
#66 = CC_DESIGN_PERSON_AND_ORGANIZATION_ASSIGNMENT ( #233, #218, ( #100 ) ) ;
#67 = VERTEX_POINT ( 'NONE', #246 ) ;
#68 = AXIS2_PLACEMENT_3D ( 'NONE', #224, #94, #170 ) ;
#69 = ORIENTED_EDGE ( 'NONE', *, *, #175, .F. ) ;
#70 = DIRECTION ( 'NONE',  ( -0.000000000000000000, -0.000000000000000000, -1.000000000000000000 ) ) ;
#71 = EDGE_CURVE ( 'NONE', #174, #241, #152, .T. ) ;
#72 = DIRECTION ( 'NONE',  ( 0.000000000000000000, 0.000000000000000000, 1.000000000000000000 ) ) ;
#73 = MECHANICAL_CONTEXT ( 'NONE', #63, 'mechanical' ) ;
#74 = DIRECTION ( 'NONE',  ( -0.000000000000000000, -0.000000000000000000, -1.000000000000000000 ) ) ;
#75 = CC_DESIGN_APPROVAL ( #129, ( #1 ) ) ;
#76 = DIRECTION ( 'NONE',  ( -1.000000000000000000, 0.000000000000000000, 0.000000000000000000 ) ) ;
#77 = PERSON_AND_ORGANIZATION ( #83, #236 ) ;
#78 = CC_DESIGN_PERSON_AND_ORGANIZATION_ASSIGNMENT ( #141, #251, ( #1 ) ) ;
#79 = DIRECTION ( 'NONE',  ( 1.000000000000000000, 0.000000000000000000, 0.000000000000000000 ) ) ;
#80 = PRODUCT ( 'e124', 'e124', '', ( #73 ) ) ;
#81 = EDGE_LOOP ( 'NONE', ( #154, #244, #196, #187 ) ) ;
#82 = EDGE_CURVE ( 'NONE', #166, #159, #240, .T. ) ;
#83 = PERSON ( 'NEURÈENÝ', 'NEURÈENÝ', 'NEURÈENÝ', ('NEURÈENÝ'), ('NEURÈENÝ'), ('NEURÈENÝ') ) ;
#84 = LOCAL_TIME ( 19, 10, 19.00000000000000000, #34 ) ;
#85 = FACE_OUTER_BOUND ( 'NONE', #96, .T. ) ;
#86 = AXIS2_PLACEMENT_3D ( 'NONE', #4, #2, #79 ) ;
#87 = DIRECTION ( 'NONE',  ( -0.000000000000000000, -0.000000000000000000, -1.000000000000000000 ) ) ;
#88 = DIRECTION ( 'NONE',  ( -1.000000000000000000, 0.000000000000000000, 0.000000000000000000 ) ) ;
#89 = ORIENTED_EDGE ( 'NONE', *, *, #217, .F. ) ;
#90 = DIRECTION ( 'NONE',  ( 1.000000000000000000, 0.000000000000000000, 0.000000000000000000 ) ) ;
#91 = DIRECTION ( 'NONE',  ( 0.000000000000000000, 0.000000000000000000, 1.000000000000000000 ) ) ;
#92 = ORIENTED_EDGE ( 'NONE', *, *, #125, .T. ) ;
#93 = APPROVAL_DATE_TIME ( #191, #219 ) ;
#94 = DIRECTION ( 'NONE',  ( 0.000000000000000000, 0.000000000000000000, 1.000000000000000000 ) ) ;
#95 = APPROVAL_STATUS ( 'not_yet_approved' ) ;
#96 = EDGE_LOOP ( 'NONE', ( #47, #239 ) ) ;
#97 = DIRECTION ( 'NONE',  ( 1.000000000000000000, 0.000000000000000000, 0.000000000000000000 ) ) ;
#98 = DATE_AND_TIME ( #23, #127 ) ;
#99 = EDGE_LOOP ( 'NONE', ( #165, #208, #38, #223 ) ) ;
#100 = PRODUCT_DEFINITION_FORMATION_WITH_SPECIFIED_SOURCE ( 'LIBOVOLNÝ', '', #80, .NOT_KNOWN. ) ;
#101 = VECTOR ( 'NONE', #87, 1000.000000000000000 ) ;
#102 = APPLICATION_CONTEXT ( 'configuration controlled 3d designs of mechanical parts and assemblies' ) ;
#103 = CIRCLE ( 'NONE', #64, 11.00000000000000000 ) ;
#104 = VERTEX_POINT ( 'NONE', #51 ) ;
#105 = EDGE_CURVE ( 'NONE', #104, #228, #211, .T. ) ;
#106 = DIRECTION ( 'NONE',  ( 0.000000000000000000, 0.000000000000000000, 1.000000000000000000 ) ) ;
#107 = PLANE ( 'NONE',  #17 ) ;
#108 = AXIS2_PLACEMENT_3D ( 'NONE', #132, #226, #115 ) ;
#109 = AXIS2_PLACEMENT_3D ( 'NONE', #189, #229, #76 ) ;
#110 = DIRECTION ( 'NONE',  ( -0.000000000000000000, -0.000000000000000000, -1.000000000000000000 ) ) ;
#111 = COORDINATED_UNIVERSAL_TIME_OFFSET ( 1, 0, .AHEAD. ) ;
#112 = ORIENTED_EDGE ( 'NONE', *, *, #175, .T. ) ;
#113 = CYLINDRICAL_SURFACE ( 'NONE', #176, 11.00000000000000000 ) ;
#114 = APPROVAL_ROLE ( '' ) ;
#115 = DIRECTION ( 'NONE',  ( -1.000000000000000000, 0.000000000000000000, 0.000000000000000000 ) ) ;
#116 = PERSON_AND_ORGANIZATION_ROLE ( 'design_owner' ) ;
#117 = DIRECTION ( 'NONE',  ( 0.000000000000000000, 0.000000000000000000, 1.000000000000000000 ) ) ;
#118 = CIRCLE ( 'NONE', #68, 7.500000000000000000 ) ;
#119 = CALENDAR_DATE ( 2022, 7, 7 ) ;
#120 = EDGE_LOOP ( 'NONE', ( #112, #151 ) ) ;
#121 = DATE_AND_TIME ( #119, #84 ) ;
#122 = CIRCLE ( 'NONE', #140, 11.00000000000000000 ) ;
#123 = DIRECTION ( 'NONE',  ( -0.000000000000000000, -0.000000000000000000, -1.000000000000000000 ) ) ;
#124 = CARTESIAN_POINT ( 'NONE',  ( 0.000000000000000000, 0.000000000000000000, 7.000000000000000000 ) ) ;
#125 = EDGE_CURVE ( 'NONE', #67, #21, #40, .T. ) ;
#126 = CIRCLE ( 'NONE', #86, 7.500000000000000000 ) ;
#127 = LOCAL_TIME ( 19, 10, 19.00000000000000000, #43 ) ;
#128 = FACE_OUTER_BOUND ( 'NONE', #99, .T. ) ;
#129 = APPROVAL ( #95, 'NEURÈENÝ' ) ;
#130 = EDGE_LOOP ( 'NONE', ( #36, #210 ) ) ;
#131 = CC_DESIGN_APPROVAL ( #252, ( #100 ) ) ;
#132 = CARTESIAN_POINT ( 'NONE',  ( 0.000000000000000000, 0.000000000000000000, 257.0000000000000000 ) ) ;
#133 = PERSON_AND_ORGANIZATION_ROLE ( 'creator' ) ;
#134 = ORIENTED_EDGE ( 'NONE', *, *, #105, .F. ) ;
#135 = FACE_OUTER_BOUND ( 'NONE', #120, .T. ) ;
#136 = PERSON_AND_ORGANIZATION ( #83, #236 ) ;
#137 = EDGE_CURVE ( 'NONE', #228, #21, #8, .T. ) ;
#138 = DIRECTION ( 'NONE',  ( 0.000000000000000000, 0.000000000000000000, 1.000000000000000000 ) ) ;
#139 = VECTOR ( 'NONE', #74, 1000.000000000000000 ) ;
#140 = AXIS2_PLACEMENT_3D ( 'NONE', #172, #138, #56 ) ;
#141 = PERSON_AND_ORGANIZATION ( #83, #236 ) ;
#142 = PLANE ( 'NONE',  #232 ) ;
#143 = CYLINDRICAL_SURFACE ( 'NONE', #234, 11.00000000000000000 ) ;
#144 = UNCERTAINTY_MEASURE_WITH_UNIT (LENGTH_MEASURE( 1.000000000000000082E-05 ), #54, 'distance_accuracy_value', 'NONE');
#145 = FACE_BOUND ( 'NONE', #130, .T. ) ;
#146 = EDGE_LOOP ( 'NONE', ( #230, #25 ) ) ;
#147 = DIRECTION ( 'NONE',  ( 0.000000000000000000, 0.000000000000000000, 1.000000000000000000 ) ) ;
#148 = APPROVAL_DATE_TIME ( #171, #129 ) ;
#149 = CARTESIAN_POINT ( 'NONE',  ( 0.000000000000000000, 0.000000000000000000, 0.000000000000000000 ) ) ;
#150 =( NAMED_UNIT ( * ) SI_UNIT ( $, .STERADIAN. ) SOLID_ANGLE_UNIT ( ) );
#151 = ORIENTED_EDGE ( 'NONE', *, *, #179, .T. ) ;
#152 = LINE ( 'NONE', #58, #52 ) ;
#153 = DIRECTION ( 'NONE',  ( 1.000000000000000000, 0.000000000000000000, 0.000000000000000000 ) ) ;
#154 = ORIENTED_EDGE ( 'NONE', *, *, #179, .F. ) ;
#155 = CC_DESIGN_SECURITY_CLASSIFICATION ( #11, ( #100 ) ) ;
#156 = CC_DESIGN_DATE_AND_TIME_ASSIGNMENT ( #28, #255, ( #11 ) ) ;
#157 = CARTESIAN_POINT ( 'NONE',  ( 0.000000000000000000, 0.000000000000000000, 7.000000000000000000 ) ) ;
#158 = CARTESIAN_POINT ( 'NONE',  ( -11.00000000000000000, 0.000000000000000000, 0.000000000000000000 ) ) ;
#159 = VERTEX_POINT ( 'NONE', #163 ) ;
#160 = AXIS2_PLACEMENT_3D ( 'NONE', #124, #106, #5 ) ;
#161 = ADVANCED_FACE ( 'NONE', ( #128 ), #167, .T. ) ;
#162 = ADVANCED_FACE ( 'NONE', ( #231 ), #192, .T. ) ;
#163 = CARTESIAN_POINT ( 'NONE',  ( -7.500000000000000000, 0.000000000000000000, 7.000000000000000000 ) ) ;
#164 = DIRECTION ( 'NONE',  ( -0.000000000000000000, -0.000000000000000000, -1.000000000000000000 ) ) ;
#165 = ORIENTED_EDGE ( 'NONE', *, *, #71, .F. ) ;
#166 = VERTEX_POINT ( 'NONE', #185 ) ;
#167 = CYLINDRICAL_SURFACE ( 'NONE', #108, 7.500000000000000000 ) ;
#168 = LOCAL_TIME ( 19, 10, 19.00000000000000000, #215 ) ;
#169 = PERSON_AND_ORGANIZATION ( #83, #236 ) ;
#170 = DIRECTION ( 'NONE',  ( 1.000000000000000000, 0.000000000000000000, 0.000000000000000000 ) ) ;
#171 = DATE_AND_TIME ( #16, #168 ) ;
#172 = CARTESIAN_POINT ( 'NONE',  ( 0.000000000000000000, 0.000000000000000000, 7.000000000000000000 ) ) ;
#173 = APPROVAL_DATE_TIME ( #121, #252 ) ;
#174 = VERTEX_POINT ( 'NONE', #22 ) ;
#175 = EDGE_CURVE ( 'NONE', #67, #104, #122, .T. ) ;
#176 = AXIS2_PLACEMENT_3D ( 'NONE', #253, #164, #88 ) ;
#177 = SHAPE_DEFINITION_REPRESENTATION ( #9, #31 ) ;
#178 = AXIS2_PLACEMENT_3D ( 'NONE', #157, #220, #250 ) ;
#179 = EDGE_CURVE ( 'NONE', #104, #67, #235, .T. ) ;
#180 = CARTESIAN_POINT ( 'NONE',  ( 0.000000000000000000, 0.000000000000000000, 257.0000000000000000 ) ) ;
#181 = DIRECTION ( 'NONE',  ( 1.000000000000000000, 0.000000000000000000, -0.000000000000000000 ) ) ;
#182 = ORIENTED_EDGE ( 'NONE', *, *, #242, .T. ) ;
#183 = DIRECTION ( 'NONE',  ( 1.000000000000000000, 0.000000000000000000, 0.000000000000000000 ) ) ;
#184 = CALENDAR_DATE ( 2022, 7, 7 ) ;
#185 = CARTESIAN_POINT ( 'NONE',  ( -7.500000000000000000, 0.000000000000000000, 257.0000000000000000 ) ) ;
#186 = PERSON_AND_ORGANIZATION ( #83, #236 ) ;
#187 = ORIENTED_EDGE ( 'NONE', *, *, #125, .F. ) ;
#188 = CIRCLE ( 'NONE', #178, 7.500000000000000000 ) ;
#189 = CARTESIAN_POINT ( 'NONE',  ( 0.000000000000000000, 0.000000000000000000, 257.0000000000000000 ) ) ;
#190 = ORIENTED_EDGE ( 'NONE', *, *, #61, .T. ) ;
#191 = DATE_AND_TIME ( #213, #27 ) ;
#192 = CYLINDRICAL_SURFACE ( 'NONE', #109, 7.500000000000000000 ) ;
#193 = APPLICATION_PROTOCOL_DEFINITION ( 'international standard', 'config_control_design', 1994, #63 ) ;
#194 = PERSON_AND_ORGANIZATION ( #83, #236 ) ;
#195 = ADVANCED_FACE ( 'NONE', ( #13 ), #113, .T. ) ;
#196 = ORIENTED_EDGE ( 'NONE', *, *, #137, .T. ) ;
#197 = CC_DESIGN_APPROVAL ( #219, ( #11 ) ) ;
#198 = CC_DESIGN_PERSON_AND_ORGANIZATION_ASSIGNMENT ( #136, #116, ( #80 ) ) ;
#199 = DIRECTION ( 'NONE',  ( -1.000000000000000000, 0.000000000000000000, 0.000000000000000000 ) ) ;
#200 = LOCAL_TIME ( 19, 10, 19.00000000000000000, #111 ) ;
#201 = CC_DESIGN_PERSON_AND_ORGANIZATION_ASSIGNMENT ( #77, #133, ( #100 ) ) ;
#202 = CLOSED_SHELL ( 'NONE', ( #162, #195, #6, #207, #46, #161, #26 ) ) ;
#203 = MANIFOLD_SOLID_BREP ( 'Pøidat vysunutím3', #202 ) ;
#204 = CC_DESIGN_PERSON_AND_ORGANIZATION_ASSIGNMENT ( #194, #24, ( #11 ) ) ;
#205 = CIRCLE ( 'NONE', #160, 7.500000000000000000 ) ;
#206 = CARTESIAN_POINT ( 'NONE',  ( 11.00000000000000000, 1.347111479062088405E-15, 7.000000000000000000 ) ) ;
#207 = ADVANCED_FACE ( 'NONE', ( #145, #135 ), #10, .T. ) ;
#208 = ORIENTED_EDGE ( 'NONE', *, *, #12, .F. ) ;
#209 = DIRECTION ( 'NONE',  ( 1.000000000000000000, 0.000000000000000000, -0.000000000000000000 ) ) ;
#210 = ORIENTED_EDGE ( 'NONE', *, *, #61, .F. ) ;
#211 = LINE ( 'NONE', #206, #238 ) ;
#212 =( NAMED_UNIT ( * ) PLANE_ANGLE_UNIT ( ) SI_UNIT ( $, .RADIAN. ) );
#213 = CALENDAR_DATE ( 2022, 7, 7 ) ;
#214 = CARTESIAN_POINT ( 'NONE',  ( 0.000000000000000000, 0.000000000000000000, 7.000000000000000000 ) ) ;
#215 = COORDINATED_UNIVERSAL_TIME_OFFSET ( 1, 0, .AHEAD. ) ;
#216 = APPROVAL_PERSON_ORGANIZATION ( #169, #219, #39 ) ;
#217 = EDGE_CURVE ( 'NONE', #174, #166, #118, .T. ) ;
#218 = PERSON_AND_ORGANIZATION_ROLE ( 'design_supplier' ) ;
#219 = APPROVAL ( #19, 'NEURÈENÝ' ) ;
#220 = DIRECTION ( 'NONE',  ( 0.000000000000000000, 0.000000000000000000, 1.000000000000000000 ) ) ;
#221 = CARTESIAN_POINT ( 'NONE',  ( 0.000000000000000000, 0.000000000000000000, 7.000000000000000000 ) ) ;
#222 = DIRECTION ( 'NONE',  ( 1.000000000000000000, 0.000000000000000000, -0.000000000000000000 ) ) ;
#223 = ORIENTED_EDGE ( 'NONE', *, *, #55, .T. ) ;
#224 = CARTESIAN_POINT ( 'NONE',  ( 0.000000000000000000, 0.000000000000000000, 257.0000000000000000 ) ) ;
#225 = ORIENTED_EDGE ( 'NONE', *, *, #82, .F. ) ;
#226 = DIRECTION ( 'NONE',  ( -0.000000000000000000, -0.000000000000000000, -1.000000000000000000 ) ) ;
#227 = DATE_TIME_ROLE ( 'creation_date' ) ;
#228 = VERTEX_POINT ( 'NONE', #37 ) ;
#229 = DIRECTION ( 'NONE',  ( -0.000000000000000000, -0.000000000000000000, -1.000000000000000000 ) ) ;
#230 = ORIENTED_EDGE ( 'NONE', *, *, #12, .T. ) ;
#231 = FACE_OUTER_BOUND ( 'NONE', #18, .T. ) ;
#232 = AXIS2_PLACEMENT_3D ( 'NONE', #180, #65, #181 ) ;
#233 = PERSON_AND_ORGANIZATION ( #83, #236 ) ;
#234 = AXIS2_PLACEMENT_3D ( 'NONE', #221, #123, #199 ) ;
#235 = CIRCLE ( 'NONE', #35, 11.00000000000000000 ) ;
#236 = ORGANIZATION ( 'NEURÈENÝ', 'NEURÈENÝ', '' ) ;
#237 = CARTESIAN_POINT ( 'NONE',  ( 0.000000000000000000, 0.000000000000000000, 0.000000000000000000 ) ) ;
#238 = VECTOR ( 'NONE', #70, 1000.000000000000000 ) ;
#239 = ORIENTED_EDGE ( 'NONE', *, *, #137, .F. ) ;
#240 = LINE ( 'NONE', #42, #101 ) ;
#241 = VERTEX_POINT ( 'NONE', #33 ) ;
#242 = EDGE_CURVE ( 'NONE', #21, #228, #103, .T. ) ;
#243 = CARTESIAN_POINT ( 'NONE',  ( 0.000000000000000000, 0.000000000000000000, 7.000000000000000000 ) ) ;
#244 = ORIENTED_EDGE ( 'NONE', *, *, #105, .T. ) ;
#245 = ORIENTED_EDGE ( 'NONE', *, *, #71, .T. ) ;
#246 = CARTESIAN_POINT ( 'NONE',  ( -11.00000000000000000, 0.000000000000000000, 7.000000000000000000 ) ) ;
#247 = APPROVAL_ROLE ( '' ) ;
#248 = EDGE_LOOP ( 'NONE', ( #134, #69, #92, #182 ) ) ;
#249 = AXIS2_PLACEMENT_3D ( 'NONE', #243, #72, #209 ) ;
#250 = DIRECTION ( 'NONE',  ( 1.000000000000000000, 0.000000000000000000, 0.000000000000000000 ) ) ;
#251 = PERSON_AND_ORGANIZATION_ROLE ( 'creator' ) ;
#252 = APPROVAL ( #254, 'NEURÈENÝ' ) ;
#253 = CARTESIAN_POINT ( 'NONE',  ( 0.000000000000000000, 0.000000000000000000, 7.000000000000000000 ) ) ;
#254 = APPROVAL_STATUS ( 'not_yet_approved' ) ;
#255 = DATE_TIME_ROLE ( 'classification_date' ) ;
ENDSEC;
END-ISO-10303-21;
