ISO-10303-21;
HEADER;
FILE_DESCRIPTION (( 'STEP AP203' ),
    '1' );
FILE_NAME ('2e03.STEP',
    '2022-07-07T17:47:30',
    ( '' ),
    ( '' ),
    'SwSTEP 2.0',
    'SolidWorks 2019',
    '' );
FILE_SCHEMA (( 'CONFIG_CONTROL_DESIGN' ));
ENDSEC;

DATA;
#1 = EDGE_LOOP ( 'NONE', ( #250, #247, #207, #252 ) ) ;
#2 = EDGE_CURVE ( 'NONE', #16, #47, #45, .T. ) ;
#3 = ORIENTED_EDGE ( 'NONE', *, *, #40, .F. ) ;
#4 = DIRECTION ( 'NONE',  ( -1.000000000000000000, 0.000000000000000000, 0.000000000000000000 ) ) ;
#5 = DIRECTION ( 'NONE',  ( 1.000000000000000000, 0.000000000000000000, 0.000000000000000000 ) ) ;
#6 = LINE ( 'NONE', #177, #164 ) ;
#7 = DIRECTION ( 'NONE',  ( -0.000000000000000000, -0.000000000000000000, -1.000000000000000000 ) ) ;
#8 = AXIS2_PLACEMENT_3D ( 'NONE', #36, #238, #235 ) ;
#9 =( NAMED_UNIT ( * ) PLANE_ANGLE_UNIT ( ) SI_UNIT ( $, .RADIAN. ) );
#10 = ADVANCED_FACE ( 'NONE', ( #46 ), #30, .T. ) ;
#11 = CIRCLE ( 'NONE', #70, 5.000000000000000000 ) ;
#12 = PERSON_AND_ORGANIZATION ( #57, #104 ) ;
#13 = CC_DESIGN_DATE_AND_TIME_ASSIGNMENT ( #43, #121, ( #82 ) ) ;
#14 = EDGE_CURVE ( 'NONE', #29, #225, #226, .T. ) ;
#15 = EDGE_LOOP ( 'NONE', ( #110, #253 ) ) ;
#16 = VERTEX_POINT ( 'NONE', #71 ) ;
#17 = ORIENTED_EDGE ( 'NONE', *, *, #146, .T. ) ;
#18 = DIRECTION ( 'NONE',  ( 1.000000000000000000, 0.000000000000000000, 0.000000000000000000 ) ) ;
#19 = LINE ( 'NONE', #232, #159 ) ;
#20 = DIRECTION ( 'NONE',  ( 0.000000000000000000, 0.000000000000000000, 1.000000000000000000 ) ) ;
#21 = AXIS2_PLACEMENT_3D ( 'NONE', #151, #195, #5 ) ;
#22 = DIRECTION ( 'NONE',  ( -0.000000000000000000, -0.000000000000000000, -1.000000000000000000 ) ) ;
#23 = EDGE_CURVE ( 'NONE', #66, #73, #11, .T. ) ;
#24 = CARTESIAN_POINT ( 'NONE',  ( 5.000000000000000000, 6.123233995736766282E-16, 0.000000000000000000 ) ) ;
#25 = COORDINATED_UNIVERSAL_TIME_OFFSET ( 1, 0, .AHEAD. ) ;
#26 = APPROVAL_PERSON_ORGANIZATION ( #199, #254, #134 ) ;
#27 = PERSON_AND_ORGANIZATION_ROLE ( 'creator' ) ;
#28 = DATE_TIME_ROLE ( 'creation_date' ) ;
#29 = VERTEX_POINT ( 'NONE', #112 ) ;
#30 = CYLINDRICAL_SURFACE ( 'NONE', #84, 5.000000000000000000 ) ;
#31 = CARTESIAN_POINT ( 'NONE',  ( -5.000000000000000000, 0.000000000000000000, 0.000000000000000000 ) ) ;
#32 = EDGE_CURVE ( 'NONE', #165, #126, #167, .T. ) ;
#33 = EDGE_LOOP ( 'NONE', ( #69, #49, #94, #111 ) ) ;
#34 = CARTESIAN_POINT ( 'NONE',  ( -2.500000000000000000, 0.000000000000000000, 128.0000000000000000 ) ) ;
#35 = APPROVAL_STATUS ( 'not_yet_approved' ) ;
#36 = CARTESIAN_POINT ( 'NONE',  ( 0.000000000000000000, 0.000000000000000000, 0.000000000000000000 ) ) ;
#37 = DIRECTION ( 'NONE',  ( 0.000000000000000000, 0.000000000000000000, 1.000000000000000000 ) ) ;
#38 = CYLINDRICAL_SURFACE ( 'NONE', #44, 5.000000000000000000 ) ;
#39 = DIRECTION ( 'NONE',  ( 1.000000000000000000, 0.000000000000000000, 0.000000000000000000 ) ) ;
#40 = EDGE_CURVE ( 'NONE', #47, #66, #191, .T. ) ;
#41 = COORDINATED_UNIVERSAL_TIME_OFFSET ( 1, 0, .AHEAD. ) ;
#42 = APPROVAL_DATE_TIME ( #220, #254 ) ;
#43 = DATE_AND_TIME ( #222, #240 ) ;
#44 = AXIS2_PLACEMENT_3D ( 'NONE', #113, #114, #197 ) ;
#45 = CIRCLE ( 'NONE', #52, 5.000000000000000000 ) ;
#46 = FACE_OUTER_BOUND ( 'NONE', #203, .T. ) ;
#47 = VERTEX_POINT ( 'NONE', #75 ) ;
#48 = CC_DESIGN_PERSON_AND_ORGANIZATION_ASSIGNMENT ( #205, #187, ( #206 ) ) ;
#49 = ORIENTED_EDGE ( 'NONE', *, *, #32, .F. ) ;
#50 = DATE_AND_TIME ( #176, #154 ) ;
#51 = EDGE_LOOP ( 'NONE', ( #148, #137 ) ) ;
#52 = AXIS2_PLACEMENT_3D ( 'NONE', #74, #231, #211 ) ;
#53 = CARTESIAN_POINT ( 'NONE',  ( 0.000000000000000000, 0.000000000000000000, 0.000000000000000000 ) ) ;
#54 = CARTESIAN_POINT ( 'NONE',  ( 0.000000000000000000, 0.000000000000000000, 0.000000000000000000 ) ) ;
#55 = ORIENTED_EDGE ( 'NONE', *, *, #88, .F. ) ;
#56 = FACE_OUTER_BOUND ( 'NONE', #1, .T. ) ;
#57 = PERSON ( 'NEURÈENÝ', 'NEURÈENÝ', 'NEURÈENÝ', ('NEURÈENÝ'), ('NEURÈENÝ'), ('NEURÈENÝ') ) ;
#58 = APPROVAL_DATE_TIME ( #50, #221 ) ;
#59 = EDGE_CURVE ( 'NONE', #165, #29, #152, .T. ) ;
#60 = DIRECTION ( 'NONE',  ( 1.000000000000000000, 0.000000000000000000, 0.000000000000000000 ) ) ;
#61 = AXIS2_PLACEMENT_3D ( 'NONE', #215, #79, #131 ) ;
#62 = DIRECTION ( 'NONE',  ( -0.000000000000000000, -0.000000000000000000, -1.000000000000000000 ) ) ;
#63 = APPROVAL ( #119, 'NEURÈENÝ' ) ;
#64 = PERSON_AND_ORGANIZATION ( #57, #104 ) ;
#65 = COORDINATED_UNIVERSAL_TIME_OFFSET ( 1, 0, .AHEAD. ) ;
#66 = VERTEX_POINT ( 'NONE', #31 ) ;
#67 = CIRCLE ( 'NONE', #61, 2.500000000000000000 ) ;
#68 =( GEOMETRIC_REPRESENTATION_CONTEXT ( 3 ) GLOBAL_UNCERTAINTY_ASSIGNED_CONTEXT ( ( #181 ) ) GLOBAL_UNIT_ASSIGNED_CONTEXT ( ( #97, #9, #81 ) ) REPRESENTATION_CONTEXT ( 'NONE', 'WORKASPACE' ) );
#69 = ORIENTED_EDGE ( 'NONE', *, *, #234, .F. ) ;
#70 = AXIS2_PLACEMENT_3D ( 'NONE', #53, #147, #18 ) ;
#71 = CARTESIAN_POINT ( 'NONE',  ( 5.000000000000000000, 6.123233995736766282E-16, 3.000000000000000000 ) ) ;
#72 = CIRCLE ( 'NONE', #213, 5.000000000000000000 ) ;
#73 = VERTEX_POINT ( 'NONE', #24 ) ;
#74 = CARTESIAN_POINT ( 'NONE',  ( 0.000000000000000000, 0.000000000000000000, 3.000000000000000000 ) ) ;
#75 = CARTESIAN_POINT ( 'NONE',  ( -5.000000000000000000, 0.000000000000000000, 3.000000000000000000 ) ) ;
#76 = CARTESIAN_POINT ( 'NONE',  ( 2.500000000000000000, 3.061616997868383141E-16, 128.0000000000000000 ) ) ;
#77 = CC_DESIGN_PERSON_AND_ORGANIZATION_ASSIGNMENT ( #139, #27, ( #107 ) ) ;
#78 = PLANE ( 'NONE',  #91 ) ;
#79 = DIRECTION ( 'NONE',  ( 0.000000000000000000, 0.000000000000000000, 1.000000000000000000 ) ) ;
#80 = FACE_OUTER_BOUND ( 'NONE', #33, .T. ) ;
#81 =( NAMED_UNIT ( * ) SI_UNIT ( $, .STERADIAN. ) SOLID_ANGLE_UNIT ( ) );
#82 = SECURITY_CLASSIFICATION ( '', '', #117 ) ;
#83 = APPROVAL_ROLE ( '' ) ;
#84 = AXIS2_PLACEMENT_3D ( 'NONE', #109, #230, #90 ) ;
#85 = PERSON_AND_ORGANIZATION_ROLE ( 'design_supplier' ) ;
#86 = AXIS2_PLACEMENT_3D ( 'NONE', #218, #160, #39 ) ;
#87 = AXIS2_PLACEMENT_3D ( 'NONE', #227, #128, #96 ) ;
#88 = EDGE_CURVE ( 'NONE', #126, #165, #67, .T. ) ;
#89 = LOCAL_TIME ( 19, 47, 30.00000000000000000, #244 ) ;
#90 = DIRECTION ( 'NONE',  ( -1.000000000000000000, 0.000000000000000000, 0.000000000000000000 ) ) ;
#91 = AXIS2_PLACEMENT_3D ( 'NONE', #153, #196, #178 ) ;
#92 = DIRECTION ( 'NONE',  ( -0.000000000000000000, -0.000000000000000000, -1.000000000000000000 ) ) ;
#93 = APPROVAL_PERSON_ORGANIZATION ( #183, #221, #237 ) ;
#94 = ORIENTED_EDGE ( 'NONE', *, *, #59, .T. ) ;
#95 = FACE_OUTER_BOUND ( 'NONE', #142, .T. ) ;
#96 = DIRECTION ( 'NONE',  ( 1.000000000000000000, 0.000000000000000000, 0.000000000000000000 ) ) ;
#97 =( LENGTH_UNIT ( ) NAMED_UNIT ( * ) SI_UNIT ( .MILLI., .METRE. ) );
#98 = CARTESIAN_POINT ( 'NONE',  ( 2.500000000000000000, 3.061616997868383141E-16, 3.000000000000000000 ) ) ;
#99 = COORDINATED_UNIVERSAL_TIME_OFFSET ( 1, 0, .AHEAD. ) ;
#100 = DIRECTION ( 'NONE',  ( -1.000000000000000000, 0.000000000000000000, 0.000000000000000000 ) ) ;
#101 = CYLINDRICAL_SURFACE ( 'NONE', #124, 2.500000000000000000 ) ;
#102 = CALENDAR_DATE ( 2022, 7, 7 ) ;
#103 = CIRCLE ( 'NONE', #8, 5.000000000000000000 ) ;
#104 = ORGANIZATION ( 'NEURÈENÝ', 'NEURÈENÝ', '' ) ;
#105 = PERSON_AND_ORGANIZATION ( #57, #104 ) ;
#106 = PRODUCT ( '2e03', '2e03', '', ( #241 ) ) ;
#107 = PRODUCT_DEFINITION ( 'NEZNÁMÝ', '', #206, #145 ) ;
#108 = ORIENTED_EDGE ( 'NONE', *, *, #23, .F. ) ;
#109 = CARTESIAN_POINT ( 'NONE',  ( 0.000000000000000000, 0.000000000000000000, 3.000000000000000000 ) ) ;
#110 = ORIENTED_EDGE ( 'NONE', *, *, #32, .T. ) ;
#111 = ORIENTED_EDGE ( 'NONE', *, *, #14, .T. ) ;
#112 = CARTESIAN_POINT ( 'NONE',  ( -2.500000000000000000, 0.000000000000000000, 3.000000000000000000 ) ) ;
#113 = CARTESIAN_POINT ( 'NONE',  ( 0.000000000000000000, 0.000000000000000000, 3.000000000000000000 ) ) ;
#114 = DIRECTION ( 'NONE',  ( -0.000000000000000000, -0.000000000000000000, -1.000000000000000000 ) ) ;
#115 = DIRECTION ( 'NONE',  ( 1.000000000000000000, 0.000000000000000000, -0.000000000000000000 ) ) ;
#116 = FACE_OUTER_BOUND ( 'NONE', #15, .T. ) ;
#117 = SECURITY_CLASSIFICATION_LEVEL ( 'unclassified' ) ;
#118 = CLOSED_SHELL ( 'NONE', ( #122, #10, #172, #141, #149, #188, #192 ) ) ;
#119 = APPROVAL_STATUS ( 'not_yet_approved' ) ;
#120 = APPLICATION_PROTOCOL_DEFINITION ( 'international standard', 'config_control_design', 1994, #180 ) ;
#121 = DATE_TIME_ROLE ( 'classification_date' ) ;
#122 = ADVANCED_FACE ( 'NONE', ( #95 ), #217, .T. ) ;
#123 = ORIENTED_EDGE ( 'NONE', *, *, #166, .T. ) ;
#124 = AXIS2_PLACEMENT_3D ( 'NONE', #130, #22, #100 ) ;
#125 = CC_DESIGN_PERSON_AND_ORGANIZATION_ASSIGNMENT ( #12, #85, ( #206 ) ) ;
#126 = VERTEX_POINT ( 'NONE', #76 ) ;
#127 = CARTESIAN_POINT ( 'NONE',  ( 0.000000000000000000, 0.000000000000000000, 3.000000000000000000 ) ) ;
#128 = DIRECTION ( 'NONE',  ( 0.000000000000000000, 0.000000000000000000, 1.000000000000000000 ) ) ;
#129 = CARTESIAN_POINT ( 'NONE',  ( 0.000000000000000000, 0.000000000000000000, 3.000000000000000000 ) ) ;
#130 = CARTESIAN_POINT ( 'NONE',  ( 0.000000000000000000, 0.000000000000000000, 128.0000000000000000 ) ) ;
#131 = DIRECTION ( 'NONE',  ( 1.000000000000000000, 0.000000000000000000, 0.000000000000000000 ) ) ;
#132 = VECTOR ( 'NONE', #92, 1000.000000000000000 ) ;
#133 = PLANE ( 'NONE',  #184 ) ;
#134 = APPROVAL_ROLE ( '' ) ;
#135 = LOCAL_TIME ( 19, 47, 30.00000000000000000, #41 ) ;
#136 = CALENDAR_DATE ( 2022, 7, 7 ) ;
#137 = ORIENTED_EDGE ( 'NONE', *, *, #200, .F. ) ;
#138 = PERSON_AND_ORGANIZATION_ROLE ( 'design_owner' ) ;
#139 = PERSON_AND_ORGANIZATION ( #57, #104 ) ;
#140 = MANIFOLD_SOLID_BREP ( 'Pøidat vysunutím3', #118 ) ;
#141 = ADVANCED_FACE ( 'NONE', ( #236, #155 ), #78, .T. ) ;
#142 = EDGE_LOOP ( 'NONE', ( #55, #144, #190, #208 ) ) ;
#143 = APPLICATION_CONTEXT ( 'configuration controlled 3d designs of mechanical parts and assemblies' ) ;
#144 = ORIENTED_EDGE ( 'NONE', *, *, #234, .T. ) ;
#145 = DESIGN_CONTEXT ( 'detailed design', #143, 'design' ) ;
#146 = EDGE_CURVE ( 'NONE', #73, #66, #103, .T. ) ;
#147 = DIRECTION ( 'NONE',  ( 0.000000000000000000, 0.000000000000000000, 1.000000000000000000 ) ) ;
#148 = ORIENTED_EDGE ( 'NONE', *, *, #14, .F. ) ;
#149 = ADVANCED_FACE ( 'NONE', ( #216 ), #133, .F. ) ;
#150 = DIRECTION ( 'NONE',  ( 1.000000000000000000, 0.000000000000000000, 0.000000000000000000 ) ) ;
#151 = CARTESIAN_POINT ( 'NONE',  ( 0.000000000000000000, 0.000000000000000000, 3.000000000000000000 ) ) ;
#152 = LINE ( 'NONE', #233, #249 ) ;
#153 = CARTESIAN_POINT ( 'NONE',  ( 0.000000000000000000, 0.000000000000000000, 3.000000000000000000 ) ) ;
#154 = LOCAL_TIME ( 19, 47, 30.00000000000000000, #99 ) ;
#155 = FACE_OUTER_BOUND ( 'NONE', #246, .T. ) ;
#156 = CC_DESIGN_PERSON_AND_ORGANIZATION_ASSIGNMENT ( #64, #138, ( #106 ) ) ;
#157 = CARTESIAN_POINT ( 'NONE',  ( 0.000000000000000000, 0.000000000000000000, 128.0000000000000000 ) ) ;
#158 = SHAPE_DEFINITION_REPRESENTATION ( #243, #162 ) ;
#159 = VECTOR ( 'NONE', #7, 1000.000000000000000 ) ;
#160 = DIRECTION ( 'NONE',  ( 0.000000000000000000, 0.000000000000000000, 1.000000000000000000 ) ) ;
#161 = APPROVAL_DATE_TIME ( #186, #63 ) ;
#162 = ADVANCED_BREP_SHAPE_REPRESENTATION ( '2e03', ( #140, #86 ), #68 ) ;
#163 = PERSON_AND_ORGANIZATION ( #57, #104 ) ;
#164 = VECTOR ( 'NONE', #182, 1000.000000000000000 ) ;
#165 = VERTEX_POINT ( 'NONE', #34 ) ;
#166 = EDGE_CURVE ( 'NONE', #47, #16, #72, .T. ) ;
#167 = CIRCLE ( 'NONE', #87, 2.500000000000000000 ) ;
#168 = CC_DESIGN_PERSON_AND_ORGANIZATION_ASSIGNMENT ( #163, #245, ( #82 ) ) ;
#169 = DIRECTION ( 'NONE',  ( 0.000000000000000000, 0.000000000000000000, 1.000000000000000000 ) ) ;
#170 = ORIENTED_EDGE ( 'NONE', *, *, #146, .F. ) ;
#171 = CC_DESIGN_APPROVAL ( #254, ( #107 ) ) ;
#172 = ADVANCED_FACE ( 'NONE', ( #56 ), #38, .T. ) ;
#173 = ORIENTED_EDGE ( 'NONE', *, *, #2, .T. ) ;
#174 = DIRECTION ( 'NONE',  ( 1.000000000000000000, 0.000000000000000000, -0.000000000000000000 ) ) ;
#175 = CARTESIAN_POINT ( 'NONE',  ( -5.000000000000000000, 0.000000000000000000, 3.000000000000000000 ) ) ;
#176 = CALENDAR_DATE ( 2022, 7, 7 ) ;
#177 = CARTESIAN_POINT ( 'NONE',  ( 2.500000000000000000, 3.061616997868383141E-16, 128.0000000000000000 ) ) ;
#178 = DIRECTION ( 'NONE',  ( 1.000000000000000000, 0.000000000000000000, -0.000000000000000000 ) ) ;
#179 = PLANE ( 'NONE',  #185 ) ;
#180 = APPLICATION_CONTEXT ( 'configuration controlled 3d designs of mechanical parts and assemblies' ) ;
#181 = UNCERTAINTY_MEASURE_WITH_UNIT (LENGTH_MEASURE( 1.000000000000000082E-05 ), #97, 'distance_accuracy_value', 'NONE');
#182 = DIRECTION ( 'NONE',  ( -0.000000000000000000, -0.000000000000000000, -1.000000000000000000 ) ) ;
#183 = PERSON_AND_ORGANIZATION ( #57, #104 ) ;
#184 = AXIS2_PLACEMENT_3D ( 'NONE', #54, #37, #115 ) ;
#185 = AXIS2_PLACEMENT_3D ( 'NONE', #198, #20, #174 ) ;
#186 = DATE_AND_TIME ( #204, #89 ) ;
#187 = PERSON_AND_ORGANIZATION_ROLE ( 'creator' ) ;
#188 = ADVANCED_FACE ( 'NONE', ( #80 ), #101, .T. ) ;
#189 = CC_DESIGN_APPROVAL ( #63, ( #206 ) ) ;
#190 = ORIENTED_EDGE ( 'NONE', *, *, #200, .T. ) ;
#191 = LINE ( 'NONE', #175, #132 ) ;
#192 = ADVANCED_FACE ( 'NONE', ( #116 ), #179, .T. ) ;
#193 = EDGE_LOOP ( 'NONE', ( #108, #170 ) ) ;
#194 = LOCAL_TIME ( 19, 47, 30.00000000000000000, #25 ) ;
#195 = DIRECTION ( 'NONE',  ( 0.000000000000000000, 0.000000000000000000, 1.000000000000000000 ) ) ;
#196 = DIRECTION ( 'NONE',  ( 0.000000000000000000, 0.000000000000000000, 1.000000000000000000 ) ) ;
#197 = DIRECTION ( 'NONE',  ( -1.000000000000000000, 0.000000000000000000, 0.000000000000000000 ) ) ;
#198 = CARTESIAN_POINT ( 'NONE',  ( 0.000000000000000000, 0.000000000000000000, 128.0000000000000000 ) ) ;
#199 = PERSON_AND_ORGANIZATION ( #57, #104 ) ;
#200 = EDGE_CURVE ( 'NONE', #225, #29, #209, .T. ) ;
#201 = AXIS2_PLACEMENT_3D ( 'NONE', #127, #169, #150 ) ;
#202 = APPLICATION_PROTOCOL_DEFINITION ( 'international standard', 'config_control_design', 1994, #143 ) ;
#203 = EDGE_LOOP ( 'NONE', ( #212, #210, #17, #3 ) ) ;
#204 = CALENDAR_DATE ( 2022, 7, 7 ) ;
#205 = PERSON_AND_ORGANIZATION ( #57, #104 ) ;
#206 = PRODUCT_DEFINITION_FORMATION_WITH_SPECIFIED_SOURCE ( 'LIBOVOLNÝ', '', #106, .NOT_KNOWN. ) ;
#207 = ORIENTED_EDGE ( 'NONE', *, *, #40, .T. ) ;
#208 = ORIENTED_EDGE ( 'NONE', *, *, #59, .F. ) ;
#209 = CIRCLE ( 'NONE', #21, 2.500000000000000000 ) ;
#210 = ORIENTED_EDGE ( 'NONE', *, *, #248, .T. ) ;
#211 = DIRECTION ( 'NONE',  ( 1.000000000000000000, 0.000000000000000000, 0.000000000000000000 ) ) ;
#212 = ORIENTED_EDGE ( 'NONE', *, *, #2, .F. ) ;
#213 = AXIS2_PLACEMENT_3D ( 'NONE', #129, #214, #60 ) ;
#214 = DIRECTION ( 'NONE',  ( 0.000000000000000000, 0.000000000000000000, 1.000000000000000000 ) ) ;
#215 = CARTESIAN_POINT ( 'NONE',  ( 0.000000000000000000, 0.000000000000000000, 128.0000000000000000 ) ) ;
#216 = FACE_OUTER_BOUND ( 'NONE', #193, .T. ) ;
#217 = CYLINDRICAL_SURFACE ( 'NONE', #239, 2.500000000000000000 ) ;
#218 = CARTESIAN_POINT ( 'NONE',  ( 0.000000000000000000, 0.000000000000000000, 0.000000000000000000 ) ) ;
#219 = DATE_AND_TIME ( #136, #194 ) ;
#220 = DATE_AND_TIME ( #102, #135 ) ;
#221 = APPROVAL ( #35, 'NEURÈENÝ' ) ;
#222 = CALENDAR_DATE ( 2022, 7, 7 ) ;
#223 = CC_DESIGN_APPROVAL ( #221, ( #82 ) ) ;
#224 = PRODUCT_RELATED_PRODUCT_CATEGORY ( 'detail', '', ( #106 ) ) ;
#225 = VERTEX_POINT ( 'NONE', #98 ) ;
#226 = CIRCLE ( 'NONE', #201, 2.500000000000000000 ) ;
#227 = CARTESIAN_POINT ( 'NONE',  ( 0.000000000000000000, 0.000000000000000000, 128.0000000000000000 ) ) ;
#228 = CC_DESIGN_SECURITY_CLASSIFICATION ( #82, ( #206 ) ) ;
#229 = CC_DESIGN_DATE_AND_TIME_ASSIGNMENT ( #219, #28, ( #107 ) ) ;
#230 = DIRECTION ( 'NONE',  ( -0.000000000000000000, -0.000000000000000000, -1.000000000000000000 ) ) ;
#231 = DIRECTION ( 'NONE',  ( 0.000000000000000000, 0.000000000000000000, 1.000000000000000000 ) ) ;
#232 = CARTESIAN_POINT ( 'NONE',  ( 5.000000000000000000, 6.123233995736766282E-16, 3.000000000000000000 ) ) ;
#233 = CARTESIAN_POINT ( 'NONE',  ( -2.500000000000000000, 0.000000000000000000, 128.0000000000000000 ) ) ;
#234 = EDGE_CURVE ( 'NONE', #126, #225, #6, .T. ) ;
#235 = DIRECTION ( 'NONE',  ( 1.000000000000000000, 0.000000000000000000, 0.000000000000000000 ) ) ;
#236 = FACE_BOUND ( 'NONE', #51, .T. ) ;
#237 = APPROVAL_ROLE ( '' ) ;
#238 = DIRECTION ( 'NONE',  ( 0.000000000000000000, 0.000000000000000000, 1.000000000000000000 ) ) ;
#239 = AXIS2_PLACEMENT_3D ( 'NONE', #157, #62, #4 ) ;
#240 = LOCAL_TIME ( 19, 47, 30.00000000000000000, #65 ) ;
#241 = MECHANICAL_CONTEXT ( 'NONE', #180, 'mechanical' ) ;
#242 = APPROVAL_STATUS ( 'not_yet_approved' ) ;
#243 = PRODUCT_DEFINITION_SHAPE ( 'NONE', 'NONE',  #107 ) ;
#244 = COORDINATED_UNIVERSAL_TIME_OFFSET ( 1, 0, .AHEAD. ) ;
#245 = PERSON_AND_ORGANIZATION_ROLE ( 'classification_officer' ) ;
#246 = EDGE_LOOP ( 'NONE', ( #123, #173 ) ) ;
#247 = ORIENTED_EDGE ( 'NONE', *, *, #166, .F. ) ;
#248 = EDGE_CURVE ( 'NONE', #16, #73, #19, .T. ) ;
#249 = VECTOR ( 'NONE', #255, 1000.000000000000000 ) ;
#250 = ORIENTED_EDGE ( 'NONE', *, *, #248, .F. ) ;
#251 = APPROVAL_PERSON_ORGANIZATION ( #105, #63, #83 ) ;
#252 = ORIENTED_EDGE ( 'NONE', *, *, #23, .T. ) ;
#253 = ORIENTED_EDGE ( 'NONE', *, *, #88, .T. ) ;
#254 = APPROVAL ( #242, 'NEURÈENÝ' ) ;
#255 = DIRECTION ( 'NONE',  ( -0.000000000000000000, -0.000000000000000000, -1.000000000000000000 ) ) ;
ENDSEC;
END-ISO-10303-21;
