ISO-10303-21;
HEADER;
FILE_DESCRIPTION (( 'STEP AP203' ),
    '1' );
FILE_NAME ('6d01.STEP',
    '2022-07-07T17:07:35',
    ( '' ),
    ( '' ),
    'SwSTEP 2.0',
    'SolidWorks 2019',
    '' );
FILE_SCHEMA (( 'CONFIG_CONTROL_DESIGN' ));
ENDSEC;

DATA;
#1 = ORIENTED_EDGE ( 'NONE', *, *, #208, .F. ) ;
#2 = APPROVAL ( #81, 'NEURÈENÝ' ) ;
#3 = ORIENTED_EDGE ( 'NONE', *, *, #219, .T. ) ;
#4 = LOCAL_TIME ( 19, 7, 34.00000000000000000, #186 ) ;
#5 = ORIENTED_EDGE ( 'NONE', *, *, #169, .F. ) ;
#6 = LINE ( 'NONE', #138, #188 ) ;
#7 = CARTESIAN_POINT ( 'NONE',  ( 11.00000000000000000, 1.347111479062088405E-15, 0.000000000000000000 ) ) ;
#8 = EDGE_CURVE ( 'NONE', #164, #226, #6, .T. ) ;
#9 = DIRECTION ( 'NONE',  ( 0.000000000000000000, 0.000000000000000000, 1.000000000000000000 ) ) ;
#10 = DIRECTION ( 'NONE',  ( -1.000000000000000000, 0.000000000000000000, 0.000000000000000000 ) ) ;
#11 =( LENGTH_UNIT ( ) NAMED_UNIT ( * ) SI_UNIT ( .MILLI., .METRE. ) );
#12 = DIRECTION ( 'NONE',  ( -0.000000000000000000, -0.000000000000000000, -1.000000000000000000 ) ) ;
#13 = DIRECTION ( 'NONE',  ( 0.000000000000000000, 0.000000000000000000, 1.000000000000000000 ) ) ;
#14 = VECTOR ( 'NONE', #202, 1000.000000000000000 ) ;
#15 = CALENDAR_DATE ( 2022, 7, 7 ) ;
#16 = APPROVAL_ROLE ( '' ) ;
#17 = AXIS2_PLACEMENT_3D ( 'NONE', #88, #89, #160 ) ;
#18 = APPROVAL ( #230, 'NEURÈENÝ' ) ;
#19 = APPROVAL_DATE_TIME ( #232, #2 ) ;
#20 = DIRECTION ( 'NONE',  ( 1.000000000000000000, 0.000000000000000000, -0.000000000000000000 ) ) ;
#21 = ORIENTED_EDGE ( 'NONE', *, *, #34, .F. ) ;
#22 = CARTESIAN_POINT ( 'NONE',  ( 0.000000000000000000, 0.000000000000000000, 322.0000000000000000 ) ) ;
#23 = EDGE_LOOP ( 'NONE', ( #73, #124 ) ) ;
#24 = ORIENTED_EDGE ( 'NONE', *, *, #193, .T. ) ;
#25 = EDGE_CURVE ( 'NONE', #142, #164, #83, .T. ) ;
#26 = PRODUCT_DEFINITION_SHAPE ( 'NONE', 'NONE',  #85 ) ;
#27 = CARTESIAN_POINT ( 'NONE',  ( 0.000000000000000000, 0.000000000000000000, 7.000000000000000000 ) ) ;
#28 = CYLINDRICAL_SURFACE ( 'NONE', #231, 8.000000000000000000 ) ;
#29 = DIRECTION ( 'NONE',  ( 1.000000000000000000, 0.000000000000000000, -0.000000000000000000 ) ) ;
#30 = AXIS2_PLACEMENT_3D ( 'NONE', #27, #228, #162 ) ;
#31 = MECHANICAL_CONTEXT ( 'NONE', #135, 'mechanical' ) ;
#32 = AXIS2_PLACEMENT_3D ( 'NONE', #128, #201, #105 ) ;
#33 = FACE_OUTER_BOUND ( 'NONE', #82, .T. ) ;
#34 = EDGE_CURVE ( 'NONE', #97, #177, #136, .T. ) ;
#35 = PERSON_AND_ORGANIZATION_ROLE ( 'design_supplier' ) ;
#36 = UNCERTAINTY_MEASURE_WITH_UNIT (LENGTH_MEASURE( 1.000000000000000082E-05 ), #11, 'distance_accuracy_value', 'NONE');
#37 = DIRECTION ( 'NONE',  ( 0.000000000000000000, 0.000000000000000000, 1.000000000000000000 ) ) ;
#38 =( NAMED_UNIT ( * ) PLANE_ANGLE_UNIT ( ) SI_UNIT ( $, .RADIAN. ) );
#39 = PERSON_AND_ORGANIZATION ( #106, #198 ) ;
#40 = SHAPE_DEFINITION_REPRESENTATION ( #26, #210 ) ;
#41 = PLANE ( 'NONE',  #197 ) ;
#42 = EDGE_LOOP ( 'NONE', ( #239, #120 ) ) ;
#43 = EDGE_LOOP ( 'NONE', ( #220, #191, #61, #66 ) ) ;
#44 = CYLINDRICAL_SURFACE ( 'NONE', #62, 11.00000000000000000 ) ;
#45 = DIRECTION ( 'NONE',  ( -0.000000000000000000, -0.000000000000000000, -1.000000000000000000 ) ) ;
#46 = PRODUCT_RELATED_PRODUCT_CATEGORY ( 'detail', '', ( #195 ) ) ;
#47 = CC_DESIGN_DATE_AND_TIME_ASSIGNMENT ( #168, #96, ( #222 ) ) ;
#48 = CARTESIAN_POINT ( 'NONE',  ( 8.000000000000000000, 9.797174393178825657E-16, 7.000000000000000000 ) ) ;
#49 = AXIS2_PLACEMENT_3D ( 'NONE', #184, #92, #163 ) ;
#50 = PLANE ( 'NONE',  #32 ) ;
#51 = CARTESIAN_POINT ( 'NONE',  ( -11.00000000000000000, 0.000000000000000000, 7.000000000000000000 ) ) ;
#52 = CYLINDRICAL_SURFACE ( 'NONE', #55, 11.00000000000000000 ) ;
#53 = CC_DESIGN_PERSON_AND_ORGANIZATION_ASSIGNMENT ( #74, #54, ( #139 ) ) ;
#54 = PERSON_AND_ORGANIZATION_ROLE ( 'creator' ) ;
#55 = AXIS2_PLACEMENT_3D ( 'NONE', #130, #204, #247 ) ;
#56 = CARTESIAN_POINT ( 'NONE',  ( 8.000000000000000000, 9.797174393178825657E-16, 322.0000000000000000 ) ) ;
#57 = DATE_AND_TIME ( #114, #95 ) ;
#58 = PERSON_AND_ORGANIZATION ( #106, #198 ) ;
#59 = CARTESIAN_POINT ( 'NONE',  ( 0.000000000000000000, 0.000000000000000000, 0.000000000000000000 ) ) ;
#60 = ORIENTED_EDGE ( 'NONE', *, *, #8, .T. ) ;
#61 = ORIENTED_EDGE ( 'NONE', *, *, #169, .T. ) ;
#62 = AXIS2_PLACEMENT_3D ( 'NONE', #216, #214, #159 ) ;
#63 = CARTESIAN_POINT ( 'NONE',  ( -8.000000000000000000, 0.000000000000000000, 7.000000000000000000 ) ) ;
#64 = AXIS2_PLACEMENT_3D ( 'NONE', #148, #9, #29 ) ;
#65 = CARTESIAN_POINT ( 'NONE',  ( 0.000000000000000000, 0.000000000000000000, 322.0000000000000000 ) ) ;
#66 = ORIENTED_EDGE ( 'NONE', *, *, #234, .T. ) ;
#67 = ORIENTED_EDGE ( 'NONE', *, *, #90, .F. ) ;
#68 = CC_DESIGN_PERSON_AND_ORGANIZATION_ASSIGNMENT ( #205, #113, ( #85 ) ) ;
#69 = FACE_OUTER_BOUND ( 'NONE', #42, .T. ) ;
#70 = APPROVAL_PERSON_ORGANIZATION ( #255, #2, #253 ) ;
#71 = FACE_OUTER_BOUND ( 'NONE', #173, .T. ) ;
#72 = CARTESIAN_POINT ( 'NONE',  ( 0.000000000000000000, 0.000000000000000000, 322.0000000000000000 ) ) ;
#73 = ORIENTED_EDGE ( 'NONE', *, *, #234, .F. ) ;
#74 = PERSON_AND_ORGANIZATION ( #106, #198 ) ;
#75 = CARTESIAN_POINT ( 'NONE',  ( 0.000000000000000000, 0.000000000000000000, 7.000000000000000000 ) ) ;
#76 = DIRECTION ( 'NONE',  ( 1.000000000000000000, 0.000000000000000000, 0.000000000000000000 ) ) ;
#77 =( NAMED_UNIT ( * ) SI_UNIT ( $, .STERADIAN. ) SOLID_ANGLE_UNIT ( ) );
#78 = PERSON_AND_ORGANIZATION ( #106, #198 ) ;
#79 = CALENDAR_DATE ( 2022, 7, 7 ) ;
#80 = ADVANCED_FACE ( 'NONE', ( #215 ), #44, .T. ) ;
#81 = APPROVAL_STATUS ( 'not_yet_approved' ) ;
#82 = EDGE_LOOP ( 'NONE', ( #67, #3, #24, #200 ) ) ;
#83 = CIRCLE ( 'NONE', #252, 11.00000000000000000 ) ;
#84 = ORIENTED_EDGE ( 'NONE', *, *, #208, .T. ) ;
#85 = PRODUCT_DEFINITION ( 'NEZNÁMÝ', '', #139, #161 ) ;
#86 = EDGE_LOOP ( 'NONE', ( #238, #158 ) ) ;
#87 = EDGE_LOOP ( 'NONE', ( #102, #60, #218, #5 ) ) ;
#88 = CARTESIAN_POINT ( 'NONE',  ( 0.000000000000000000, 0.000000000000000000, 0.000000000000000000 ) ) ;
#89 = DIRECTION ( 'NONE',  ( 0.000000000000000000, 0.000000000000000000, 1.000000000000000000 ) ) ;
#90 = EDGE_CURVE ( 'NONE', #177, #97, #248, .T. ) ;
#91 = AXIS2_PLACEMENT_3D ( 'NONE', #75, #37, #199 ) ;
#92 = DIRECTION ( 'NONE',  ( -0.000000000000000000, -0.000000000000000000, -1.000000000000000000 ) ) ;
#93 = FACE_OUTER_BOUND ( 'NONE', #23, .T. ) ;
#94 = CALENDAR_DATE ( 2022, 7, 7 ) ;
#95 = LOCAL_TIME ( 19, 7, 34.00000000000000000, #212 ) ;
#96 = DATE_TIME_ROLE ( 'classification_date' ) ;
#97 = VERTEX_POINT ( 'NONE', #179 ) ;
#98 = CARTESIAN_POINT ( 'NONE',  ( 0.000000000000000000, 0.000000000000000000, 322.0000000000000000 ) ) ;
#99 = VERTEX_POINT ( 'NONE', #141 ) ;
#100 =( GEOMETRIC_REPRESENTATION_CONTEXT ( 3 ) GLOBAL_UNCERTAINTY_ASSIGNED_CONTEXT ( ( #36 ) ) GLOBAL_UNIT_ASSIGNED_CONTEXT ( ( #11, #38, #77 ) ) REPRESENTATION_CONTEXT ( 'NONE', 'WORKASPACE' ) );
#101 = DIRECTION ( 'NONE',  ( 1.000000000000000000, 0.000000000000000000, 0.000000000000000000 ) ) ;
#102 = ORIENTED_EDGE ( 'NONE', *, *, #127, .F. ) ;
#103 = LOCAL_TIME ( 19, 7, 34.00000000000000000, #209 ) ;
#104 = LINE ( 'NONE', #181, #144 ) ;
#105 = DIRECTION ( 'NONE',  ( 1.000000000000000000, 0.000000000000000000, -0.000000000000000000 ) ) ;
#106 = PERSON ( 'NEURÈENÝ', 'NEURÈENÝ', 'NEURÈENÝ', ('NEURÈENÝ'), ('NEURÈENÝ'), ('NEURÈENÝ') ) ;
#107 = LINE ( 'NONE', #51, #14 ) ;
#108 = VECTOR ( 'NONE', #149, 1000.000000000000000 ) ;
#109 = APPROVAL_ROLE ( '' ) ;
#110 = CYLINDRICAL_SURFACE ( 'NONE', #49, 8.000000000000000000 ) ;
#111 = PERSON_AND_ORGANIZATION_ROLE ( 'design_owner' ) ;
#112 = APPROVAL ( #134, 'NEURÈENÝ' ) ;
#113 = PERSON_AND_ORGANIZATION_ROLE ( 'creator' ) ;
#114 = CALENDAR_DATE ( 2022, 7, 7 ) ;
#115 = MANIFOLD_SOLID_BREP ( 'Pøidat vysunutím3', #213 ) ;
#116 = APPROVAL_PERSON_ORGANIZATION ( #58, #112, #109 ) ;
#117 = ADVANCED_FACE ( 'NONE', ( #235 ), #41, .T. ) ;
#118 = COORDINATED_UNIVERSAL_TIME_OFFSET ( 1, 0, .AHEAD. ) ;
#119 = AXIS2_PLACEMENT_3D ( 'NONE', #59, #13, #76 ) ;
#120 = ORIENTED_EDGE ( 'NONE', *, *, #127, .T. ) ;
#121 = CARTESIAN_POINT ( 'NONE',  ( 0.000000000000000000, 0.000000000000000000, 7.000000000000000000 ) ) ;
#122 = VERTEX_POINT ( 'NONE', #63 ) ;
#123 = AXIS2_PLACEMENT_3D ( 'NONE', #132, #244, #206 ) ;
#124 = ORIENTED_EDGE ( 'NONE', *, *, #178, .F. ) ;
#125 = ADVANCED_FACE ( 'NONE', ( #33 ), #110, .T. ) ;
#126 = FACE_OUTER_BOUND ( 'NONE', #87, .T. ) ;
#127 = EDGE_CURVE ( 'NONE', #164, #142, #221, .T. ) ;
#128 = CARTESIAN_POINT ( 'NONE',  ( 0.000000000000000000, 0.000000000000000000, 7.000000000000000000 ) ) ;
#129 = CARTESIAN_POINT ( 'NONE',  ( -8.000000000000000000, 0.000000000000000000, 322.0000000000000000 ) ) ;
#130 = CARTESIAN_POINT ( 'NONE',  ( 0.000000000000000000, 0.000000000000000000, 7.000000000000000000 ) ) ;
#131 = APPROVAL_DATE_TIME ( #227, #112 ) ;
#132 = CARTESIAN_POINT ( 'NONE',  ( 0.000000000000000000, 0.000000000000000000, 0.000000000000000000 ) ) ;
#133 = PERSON_AND_ORGANIZATION ( #106, #198 ) ;
#134 = APPROVAL_STATUS ( 'not_yet_approved' ) ;
#135 = APPLICATION_CONTEXT ( 'configuration controlled 3d designs of mechanical parts and assemblies' ) ;
#136 = CIRCLE ( 'NONE', #143, 8.000000000000000000 ) ;
#137 = CC_DESIGN_SECURITY_CLASSIFICATION ( #222, ( #139 ) ) ;
#138 = CARTESIAN_POINT ( 'NONE',  ( 11.00000000000000000, 1.347111479062088405E-15, 7.000000000000000000 ) ) ;
#139 = PRODUCT_DEFINITION_FORMATION_WITH_SPECIFIED_SOURCE ( 'LIBOVOLNÝ', '', #195, .NOT_KNOWN. ) ;
#140 = DIRECTION ( 'NONE',  ( 0.000000000000000000, 0.000000000000000000, 1.000000000000000000 ) ) ;
#141 = CARTESIAN_POINT ( 'NONE',  ( -11.00000000000000000, 0.000000000000000000, 0.000000000000000000 ) ) ;
#142 = VERTEX_POINT ( 'NONE', #224 ) ;
#143 = AXIS2_PLACEMENT_3D ( 'NONE', #22, #174, #217 ) ;
#144 = VECTOR ( 'NONE', #223, 1000.000000000000000 ) ;
#145 = CC_DESIGN_DATE_AND_TIME_ASSIGNMENT ( #246, #250, ( #85 ) ) ;
#146 = CIRCLE ( 'NONE', #123, 11.00000000000000000 ) ;
#147 = PLANE ( 'NONE',  #64 ) ;
#148 = CARTESIAN_POINT ( 'NONE',  ( 0.000000000000000000, 0.000000000000000000, 0.000000000000000000 ) ) ;
#149 = DIRECTION ( 'NONE',  ( -0.000000000000000000, -0.000000000000000000, -1.000000000000000000 ) ) ;
#150 = CARTESIAN_POINT ( 'NONE',  ( 11.00000000000000000, 1.347111479062088405E-15, 7.000000000000000000 ) ) ;
#151 = COORDINATED_UNIVERSAL_TIME_OFFSET ( 1, 0, .AHEAD. ) ;
#152 = SECURITY_CLASSIFICATION_LEVEL ( 'unclassified' ) ;
#153 = CC_DESIGN_PERSON_AND_ORGANIZATION_ASSIGNMENT ( #78, #111, ( #195 ) ) ;
#154 = EDGE_LOOP ( 'NONE', ( #1, #192 ) ) ;
#155 = ORIENTED_EDGE ( 'NONE', *, *, #189, .T. ) ;
#156 = AXIS2_PLACEMENT_3D ( 'NONE', #245, #182, #166 ) ;
#157 = VERTEX_POINT ( 'NONE', #48 ) ;
#158 = ORIENTED_EDGE ( 'NONE', *, *, #90, .T. ) ;
#159 = DIRECTION ( 'NONE',  ( -1.000000000000000000, 0.000000000000000000, 0.000000000000000000 ) ) ;
#160 = DIRECTION ( 'NONE',  ( 1.000000000000000000, 0.000000000000000000, 0.000000000000000000 ) ) ;
#161 = DESIGN_CONTEXT ( 'detailed design', #203, 'design' ) ;
#162 = DIRECTION ( 'NONE',  ( 1.000000000000000000, 0.000000000000000000, 0.000000000000000000 ) ) ;
#163 = DIRECTION ( 'NONE',  ( -1.000000000000000000, 0.000000000000000000, 0.000000000000000000 ) ) ;
#164 = VERTEX_POINT ( 'NONE', #150 ) ;
#165 = APPLICATION_PROTOCOL_DEFINITION ( 'international standard', 'config_control_design', 1994, #135 ) ;
#166 = DIRECTION ( 'NONE',  ( 1.000000000000000000, 0.000000000000000000, 0.000000000000000000 ) ) ;
#167 = APPROVAL_PERSON_ORGANIZATION ( #39, #18, #16 ) ;
#168 = DATE_AND_TIME ( #15, #4 ) ;
#169 = EDGE_CURVE ( 'NONE', #142, #99, #107, .T. ) ;
#170 = CALENDAR_DATE ( 2022, 7, 7 ) ;
#171 = ORIENTED_EDGE ( 'NONE', *, *, #219, .F. ) ;
#172 = ADVANCED_FACE ( 'NONE', ( #71 ), #28, .T. ) ;
#173 = EDGE_LOOP ( 'NONE', ( #171, #21, #155, #84 ) ) ;
#174 = DIRECTION ( 'NONE',  ( 0.000000000000000000, 0.000000000000000000, 1.000000000000000000 ) ) ;
#175 = AXIS2_PLACEMENT_3D ( 'NONE', #98, #140, #194 ) ;
#176 = CC_DESIGN_APPROVAL ( #18, ( #139 ) ) ;
#177 = VERTEX_POINT ( 'NONE', #56 ) ;
#178 = EDGE_CURVE ( 'NONE', #226, #99, #146, .T. ) ;
#179 = CARTESIAN_POINT ( 'NONE',  ( -8.000000000000000000, 0.000000000000000000, 322.0000000000000000 ) ) ;
#180 = CC_DESIGN_PERSON_AND_ORGANIZATION_ASSIGNMENT ( #185, #207, ( #222 ) ) ;
#181 = CARTESIAN_POINT ( 'NONE',  ( 8.000000000000000000, 9.797174393178825657E-16, 322.0000000000000000 ) ) ;
#182 = DIRECTION ( 'NONE',  ( 0.000000000000000000, 0.000000000000000000, 1.000000000000000000 ) ) ;
#183 = ADVANCED_FACE ( 'NONE', ( #93 ), #147, .F. ) ;
#184 = CARTESIAN_POINT ( 'NONE',  ( 0.000000000000000000, 0.000000000000000000, 322.0000000000000000 ) ) ;
#185 = PERSON_AND_ORGANIZATION ( #106, #198 ) ;
#186 = COORDINATED_UNIVERSAL_TIME_OFFSET ( 1, 0, .AHEAD. ) ;
#187 = APPROVAL_DATE_TIME ( #57, #18 ) ;
#188 = VECTOR ( 'NONE', #45, 1000.000000000000000 ) ;
#189 = EDGE_CURVE ( 'NONE', #97, #122, #225, .T. ) ;
#190 = DIRECTION ( 'NONE',  ( 0.000000000000000000, 0.000000000000000000, 1.000000000000000000 ) ) ;
#191 = ORIENTED_EDGE ( 'NONE', *, *, #25, .F. ) ;
#192 = ORIENTED_EDGE ( 'NONE', *, *, #193, .F. ) ;
#193 = EDGE_CURVE ( 'NONE', #157, #122, #236, .T. ) ;
#194 = DIRECTION ( 'NONE',  ( 1.000000000000000000, 0.000000000000000000, 0.000000000000000000 ) ) ;
#195 = PRODUCT ( '6d01', '6d01', '', ( #31 ) ) ;
#196 = ADVANCED_FACE ( 'NONE', ( #126 ), #52, .T. ) ;
#197 = AXIS2_PLACEMENT_3D ( 'NONE', #65, #190, #20 ) ;
#198 = ORGANIZATION ( 'NEURÈENÝ', 'NEURÈENÝ', '' ) ;
#199 = DIRECTION ( 'NONE',  ( 1.000000000000000000, 0.000000000000000000, 0.000000000000000000 ) ) ;
#200 = ORIENTED_EDGE ( 'NONE', *, *, #189, .F. ) ;
#201 = DIRECTION ( 'NONE',  ( 0.000000000000000000, 0.000000000000000000, 1.000000000000000000 ) ) ;
#202 = DIRECTION ( 'NONE',  ( -0.000000000000000000, -0.000000000000000000, -1.000000000000000000 ) ) ;
#203 = APPLICATION_CONTEXT ( 'configuration controlled 3d designs of mechanical parts and assemblies' ) ;
#204 = DIRECTION ( 'NONE',  ( -0.000000000000000000, -0.000000000000000000, -1.000000000000000000 ) ) ;
#205 = PERSON_AND_ORGANIZATION ( #106, #198 ) ;
#206 = DIRECTION ( 'NONE',  ( 1.000000000000000000, 0.000000000000000000, 0.000000000000000000 ) ) ;
#207 = PERSON_AND_ORGANIZATION_ROLE ( 'classification_officer' ) ;
#208 = EDGE_CURVE ( 'NONE', #122, #157, #254, .T. ) ;
#209 = COORDINATED_UNIVERSAL_TIME_OFFSET ( 1, 0, .AHEAD. ) ;
#210 = ADVANCED_BREP_SHAPE_REPRESENTATION ( '6d01', ( #115, #119 ), #100 ) ;
#211 = CC_DESIGN_APPROVAL ( #2, ( #222 ) ) ;
#212 = COORDINATED_UNIVERSAL_TIME_OFFSET ( 1, 0, .AHEAD. ) ;
#213 = CLOSED_SHELL ( 'NONE', ( #125, #196, #80, #241, #183, #172, #117 ) ) ;
#214 = DIRECTION ( 'NONE',  ( -0.000000000000000000, -0.000000000000000000, -1.000000000000000000 ) ) ;
#215 = FACE_OUTER_BOUND ( 'NONE', #43, .T. ) ;
#216 = CARTESIAN_POINT ( 'NONE',  ( 0.000000000000000000, 0.000000000000000000, 7.000000000000000000 ) ) ;
#217 = DIRECTION ( 'NONE',  ( 1.000000000000000000, 0.000000000000000000, 0.000000000000000000 ) ) ;
#218 = ORIENTED_EDGE ( 'NONE', *, *, #178, .T. ) ;
#219 = EDGE_CURVE ( 'NONE', #177, #157, #104, .T. ) ;
#220 = ORIENTED_EDGE ( 'NONE', *, *, #8, .F. ) ;
#221 = CIRCLE ( 'NONE', #30, 11.00000000000000000 ) ;
#222 = SECURITY_CLASSIFICATION ( '', '', #152 ) ;
#223 = DIRECTION ( 'NONE',  ( -0.000000000000000000, -0.000000000000000000, -1.000000000000000000 ) ) ;
#224 = CARTESIAN_POINT ( 'NONE',  ( -11.00000000000000000, 0.000000000000000000, 7.000000000000000000 ) ) ;
#225 = LINE ( 'NONE', #129, #108 ) ;
#226 = VERTEX_POINT ( 'NONE', #7 ) ;
#227 = DATE_AND_TIME ( #170, #103 ) ;
#228 = DIRECTION ( 'NONE',  ( 0.000000000000000000, 0.000000000000000000, 1.000000000000000000 ) ) ;
#229 = CC_DESIGN_PERSON_AND_ORGANIZATION_ASSIGNMENT ( #133, #35, ( #139 ) ) ;
#230 = APPROVAL_STATUS ( 'not_yet_approved' ) ;
#231 = AXIS2_PLACEMENT_3D ( 'NONE', #72, #12, #10 ) ;
#232 = DATE_AND_TIME ( #79, #243 ) ;
#233 = CIRCLE ( 'NONE', #17, 11.00000000000000000 ) ;
#234 = EDGE_CURVE ( 'NONE', #99, #226, #233, .T. ) ;
#235 = FACE_OUTER_BOUND ( 'NONE', #86, .T. ) ;
#236 = CIRCLE ( 'NONE', #156, 8.000000000000000000 ) ;
#237 = DIRECTION ( 'NONE',  ( 0.000000000000000000, 0.000000000000000000, 1.000000000000000000 ) ) ;
#238 = ORIENTED_EDGE ( 'NONE', *, *, #34, .T. ) ;
#239 = ORIENTED_EDGE ( 'NONE', *, *, #25, .T. ) ;
#240 = LOCAL_TIME ( 19, 7, 34.00000000000000000, #151 ) ;
#241 = ADVANCED_FACE ( 'NONE', ( #242, #69 ), #50, .T. ) ;
#242 = FACE_BOUND ( 'NONE', #154, .T. ) ;
#243 = LOCAL_TIME ( 19, 7, 34.00000000000000000, #118 ) ;
#244 = DIRECTION ( 'NONE',  ( 0.000000000000000000, 0.000000000000000000, 1.000000000000000000 ) ) ;
#245 = CARTESIAN_POINT ( 'NONE',  ( 0.000000000000000000, 0.000000000000000000, 7.000000000000000000 ) ) ;
#246 = DATE_AND_TIME ( #94, #240 ) ;
#247 = DIRECTION ( 'NONE',  ( -1.000000000000000000, 0.000000000000000000, 0.000000000000000000 ) ) ;
#248 = CIRCLE ( 'NONE', #175, 8.000000000000000000 ) ;
#249 = CC_DESIGN_APPROVAL ( #112, ( #85 ) ) ;
#250 = DATE_TIME_ROLE ( 'creation_date' ) ;
#251 = APPLICATION_PROTOCOL_DEFINITION ( 'international standard', 'config_control_design', 1994, #203 ) ;
#252 = AXIS2_PLACEMENT_3D ( 'NONE', #121, #237, #101 ) ;
#253 = APPROVAL_ROLE ( '' ) ;
#254 = CIRCLE ( 'NONE', #91, 8.000000000000000000 ) ;
#255 = PERSON_AND_ORGANIZATION ( #106, #198 ) ;
ENDSEC;
END-ISO-10303-21;
