ISO-10303-21;
HEADER;
FILE_DESCRIPTION (( 'STEP AP203' ),
    '1' );
FILE_NAME ('bfda.STEP',
    '2022-07-07T17:17:32',
    ( '' ),
    ( '' ),
    'SwSTEP 2.0',
    'SolidWorks 2019',
    '' );
FILE_SCHEMA (( 'CONFIG_CONTROL_DESIGN' ));
ENDSEC;

DATA;
#1 = CARTESIAN_POINT ( 'NONE',  ( 0.000000000000000000, 0.000000000000000000, 7.000000000000000000 ) ) ;
#2 = DATE_AND_TIME ( #85, #96 ) ;
#3 = DIRECTION ( 'NONE',  ( 1.000000000000000000, 0.000000000000000000, -0.000000000000000000 ) ) ;
#4 = UNCERTAINTY_MEASURE_WITH_UNIT (LENGTH_MEASURE( 1.000000000000000082E-05 ), #13, 'distance_accuracy_value', 'NONE');
#5 = APPROVAL_DATE_TIME ( #2, #106 ) ;
#6 = DIRECTION ( 'NONE',  ( -1.000000000000000000, 0.000000000000000000, 0.000000000000000000 ) ) ;
#7 = VECTOR ( 'NONE', #189, 1000.000000000000000 ) ;
#8 = APPROVAL_ROLE ( '' ) ;
#9 = PLANE ( 'NONE',  #216 ) ;
#10 = ADVANCED_FACE ( 'NONE', ( #120 ), #38, .T. ) ;
#11 = ADVANCED_FACE ( 'NONE', ( #211 ), #196, .T. ) ;
#12 = VECTOR ( 'NONE', #237, 1000.000000000000000 ) ;
#13 =( LENGTH_UNIT ( ) NAMED_UNIT ( * ) SI_UNIT ( .MILLI., .METRE. ) );
#14 = PERSON_AND_ORGANIZATION ( #158, #163 ) ;
#15 = VERTEX_POINT ( 'NONE', #118 ) ;
#16 = FACE_BOUND ( 'NONE', #217, .T. ) ;
#17 = EDGE_LOOP ( 'NONE', ( #179, #159, #41, #143 ) ) ;
#18 = PLANE ( 'NONE',  #188 ) ;
#19 = ORIENTED_EDGE ( 'NONE', *, *, #252, .T. ) ;
#20 = APPROVAL ( #97, 'NEURÈENÝ' ) ;
#21 = CARTESIAN_POINT ( 'NONE',  ( 9.000000000000000000, 1.102182119232617714E-15, 7.000000000000000000 ) ) ;
#22 = CC_DESIGN_APPROVAL ( #20, ( #239 ) ) ;
#23 = CARTESIAN_POINT ( 'NONE',  ( -6.250000000000000000, 0.000000000000000000, 507.0000000000000000 ) ) ;
#24 = SHAPE_DEFINITION_REPRESENTATION ( #105, #87 ) ;
#25 = CYLINDRICAL_SURFACE ( 'NONE', #190, 9.000000000000000000 ) ;
#26 = COORDINATED_UNIVERSAL_TIME_OFFSET ( 1, 0, .AHEAD. ) ;
#27 = AXIS2_PLACEMENT_3D ( 'NONE', #115, #148, #29 ) ;
#28 = LINE ( 'NONE', #23, #218 ) ;
#29 = DIRECTION ( 'NONE',  ( 1.000000000000000000, 0.000000000000000000, 0.000000000000000000 ) ) ;
#30 = ADVANCED_FACE ( 'NONE', ( #178 ), #183, .T. ) ;
#31 = PERSON_AND_ORGANIZATION ( #158, #163 ) ;
#32 = EDGE_CURVE ( 'NONE', #248, #137, #226, .T. ) ;
#33 = CIRCLE ( 'NONE', #164, 6.250000000000000000 ) ;
#34 = CC_DESIGN_DATE_AND_TIME_ASSIGNMENT ( #215, #40, ( #239 ) ) ;
#35 = DIRECTION ( 'NONE',  ( -1.000000000000000000, 0.000000000000000000, 0.000000000000000000 ) ) ;
#36 =( NAMED_UNIT ( * ) PLANE_ANGLE_UNIT ( ) SI_UNIT ( $, .RADIAN. ) );
#37 = ORIENTED_EDGE ( 'NONE', *, *, #220, .F. ) ;
#38 = PLANE ( 'NONE',  #133 ) ;
#39 = CIRCLE ( 'NONE', #42, 9.000000000000000000 ) ;
#40 = DATE_TIME_ROLE ( 'creation_date' ) ;
#41 = ORIENTED_EDGE ( 'NONE', *, *, #152, .T. ) ;
#42 = AXIS2_PLACEMENT_3D ( 'NONE', #89, #167, #46 ) ;
#43 = ADVANCED_FACE ( 'NONE', ( #203 ), #240, .T. ) ;
#44 = DIRECTION ( 'NONE',  ( 1.000000000000000000, 0.000000000000000000, 0.000000000000000000 ) ) ;
#45 = PERSON_AND_ORGANIZATION_ROLE ( 'creator' ) ;
#46 = DIRECTION ( 'NONE',  ( 1.000000000000000000, 0.000000000000000000, 0.000000000000000000 ) ) ;
#47 = CARTESIAN_POINT ( 'NONE',  ( -9.000000000000000000, 0.000000000000000000, 7.000000000000000000 ) ) ;
#48 = CARTESIAN_POINT ( 'NONE',  ( -6.250000000000000000, 0.000000000000000000, 7.000000000000000000 ) ) ;
#49 = LOCAL_TIME ( 19, 17, 32.00000000000000000, #75 ) ;
#50 = AXIS2_PLACEMENT_3D ( 'NONE', #154, #197, #170 ) ;
#51 = CC_DESIGN_DATE_AND_TIME_ASSIGNMENT ( #166, #91, ( #125 ) ) ;
#52 = APPLICATION_PROTOCOL_DEFINITION ( 'international standard', 'config_control_design', 1994, #162 ) ;
#53 = AXIS2_PLACEMENT_3D ( 'NONE', #1, #224, #6 ) ;
#54 = APPLICATION_CONTEXT ( 'configuration controlled 3d designs of mechanical parts and assemblies' ) ;
#55 = PRODUCT_RELATED_PRODUCT_CATEGORY ( 'detail', '', ( #134 ) ) ;
#56 = VERTEX_POINT ( 'NONE', #47 ) ;
#57 = APPROVAL_ROLE ( '' ) ;
#58 = EDGE_LOOP ( 'NONE', ( #99, #229, #79, #214 ) ) ;
#59 = ORIENTED_EDGE ( 'NONE', *, *, #32, .T. ) ;
#60 = EDGE_CURVE ( 'NONE', #161, #142, #168, .T. ) ;
#61 = DATE_AND_TIME ( #193, #49 ) ;
#62 = ORIENTED_EDGE ( 'NONE', *, *, #71, .F. ) ;
#63 = ORIENTED_EDGE ( 'NONE', *, *, #247, .T. ) ;
#64 = PERSON_AND_ORGANIZATION ( #158, #163 ) ;
#65 = CARTESIAN_POINT ( 'NONE',  ( 0.000000000000000000, 0.000000000000000000, 507.0000000000000000 ) ) ;
#66 = PERSON_AND_ORGANIZATION_ROLE ( 'classification_officer' ) ;
#67 = DIRECTION ( 'NONE',  ( -1.000000000000000000, 0.000000000000000000, 0.000000000000000000 ) ) ;
#68 = CC_DESIGN_APPROVAL ( #106, ( #125 ) ) ;
#69 = COORDINATED_UNIVERSAL_TIME_OFFSET ( 1, 0, .AHEAD. ) ;
#70 = CARTESIAN_POINT ( 'NONE',  ( 6.250000000000000000, 7.654042494670957606E-16, 7.000000000000000000 ) ) ;
#71 = EDGE_CURVE ( 'NONE', #200, #142, #76, .T. ) ;
#72 = CARTESIAN_POINT ( 'NONE',  ( 0.000000000000000000, 0.000000000000000000, 507.0000000000000000 ) ) ;
#73 = EDGE_CURVE ( 'NONE', #161, #233, #201, .T. ) ;
#74 = CARTESIAN_POINT ( 'NONE',  ( 0.000000000000000000, 0.000000000000000000, 7.000000000000000000 ) ) ;
#75 = COORDINATED_UNIVERSAL_TIME_OFFSET ( 1, 0, .AHEAD. ) ;
#76 = CIRCLE ( 'NONE', #160, 6.250000000000000000 ) ;
#77 = ORIENTED_EDGE ( 'NONE', *, *, #73, .T. ) ;
#78 = DIRECTION ( 'NONE',  ( -0.000000000000000000, -0.000000000000000000, -1.000000000000000000 ) ) ;
#79 = ORIENTED_EDGE ( 'NONE', *, *, #136, .T. ) ;
#80 = MECHANICAL_CONTEXT ( 'NONE', #162, 'mechanical' ) ;
#81 = ORIENTED_EDGE ( 'NONE', *, *, #152, .F. ) ;
#82 = AXIS2_PLACEMENT_3D ( 'NONE', #199, #104, #35 ) ;
#83 = LOCAL_TIME ( 19, 17, 32.00000000000000000, #26 ) ;
#84 = CC_DESIGN_PERSON_AND_ORGANIZATION_ASSIGNMENT ( #31, #177, ( #134 ) ) ;
#85 = CALENDAR_DATE ( 2022, 7, 7 ) ;
#86 = DIRECTION ( 'NONE',  ( 0.000000000000000000, 0.000000000000000000, 1.000000000000000000 ) ) ;
#87 = ADVANCED_BREP_SHAPE_REPRESENTATION ( 'bfda', ( #204, #50 ), #175 ) ;
#88 = ADVANCED_FACE ( 'NONE', ( #92 ), #25, .T. ) ;
#89 = CARTESIAN_POINT ( 'NONE',  ( 0.000000000000000000, 0.000000000000000000, 0.000000000000000000 ) ) ;
#90 = CIRCLE ( 'NONE', #27, 9.000000000000000000 ) ;
#91 = DATE_TIME_ROLE ( 'classification_date' ) ;
#92 = FACE_OUTER_BOUND ( 'NONE', #173, .T. ) ;
#93 = APPROVAL_DATE_TIME ( #223, #181 ) ;
#94 = DIRECTION ( 'NONE',  ( 0.000000000000000000, 0.000000000000000000, 1.000000000000000000 ) ) ;
#95 = CC_DESIGN_PERSON_AND_ORGANIZATION_ASSIGNMENT ( #207, #236, ( #192 ) ) ;
#96 = LOCAL_TIME ( 19, 17, 32.00000000000000000, #144 ) ;
#97 = APPROVAL_STATUS ( 'not_yet_approved' ) ;
#98 = PERSON_AND_ORGANIZATION_ROLE ( 'creator' ) ;
#99 = ORIENTED_EDGE ( 'NONE', *, *, #60, .F. ) ;
#100 = AXIS2_PLACEMENT_3D ( 'NONE', #65, #145, #111 ) ;
#101 = DIRECTION ( 'NONE',  ( 0.000000000000000000, 0.000000000000000000, 1.000000000000000000 ) ) ;
#102 = ORIENTED_EDGE ( 'NONE', *, *, #220, .T. ) ;
#103 = CC_DESIGN_PERSON_AND_ORGANIZATION_ASSIGNMENT ( #14, #98, ( #239 ) ) ;
#104 = DIRECTION ( 'NONE',  ( -0.000000000000000000, -0.000000000000000000, -1.000000000000000000 ) ) ;
#105 = PRODUCT_DEFINITION_SHAPE ( 'NONE', 'NONE',  #239 ) ;
#106 = APPROVAL ( #184, 'NEURÈENÝ' ) ;
#107 = EDGE_CURVE ( 'NONE', #15, #56, #90, .T. ) ;
#108 = CARTESIAN_POINT ( 'NONE',  ( 6.250000000000000000, 7.654042494670957606E-16, 507.0000000000000000 ) ) ;
#109 = SECURITY_CLASSIFICATION_LEVEL ( 'unclassified' ) ;
#110 = CARTESIAN_POINT ( 'NONE',  ( -9.000000000000000000, 0.000000000000000000, 0.000000000000000000 ) ) ;
#111 = DIRECTION ( 'NONE',  ( 1.000000000000000000, 0.000000000000000000, 0.000000000000000000 ) ) ;
#112 = CALENDAR_DATE ( 2022, 7, 7 ) ;
#113 = DIRECTION ( 'NONE',  ( -0.000000000000000000, -0.000000000000000000, -1.000000000000000000 ) ) ;
#114 = VECTOR ( 'NONE', #78, 1000.000000000000000 ) ;
#115 = CARTESIAN_POINT ( 'NONE',  ( 0.000000000000000000, 0.000000000000000000, 7.000000000000000000 ) ) ;
#116 = CLOSED_SHELL ( 'NONE', ( #43, #30, #88, #245, #150, #11, #10 ) ) ;
#117 = CARTESIAN_POINT ( 'NONE',  ( 9.000000000000000000, 1.102182119232617714E-15, 0.000000000000000000 ) ) ;
#118 = CARTESIAN_POINT ( 'NONE',  ( 9.000000000000000000, 1.102182119232617714E-15, 7.000000000000000000 ) ) ;
#119 = EDGE_CURVE ( 'NONE', #56, #15, #172, .T. ) ;
#120 = FACE_OUTER_BOUND ( 'NONE', #251, .T. ) ;
#121 = CARTESIAN_POINT ( 'NONE',  ( 0.000000000000000000, 0.000000000000000000, 507.0000000000000000 ) ) ;
#122 = PERSON_AND_ORGANIZATION ( #158, #163 ) ;
#123 = ORIENTED_EDGE ( 'NONE', *, *, #119, .F. ) ;
#124 = DIRECTION ( 'NONE',  ( 1.000000000000000000, 0.000000000000000000, 0.000000000000000000 ) ) ;
#125 = SECURITY_CLASSIFICATION ( '', '', #109 ) ;
#126 = DIRECTION ( 'NONE',  ( 0.000000000000000000, 0.000000000000000000, 1.000000000000000000 ) ) ;
#127 = CARTESIAN_POINT ( 'NONE',  ( 0.000000000000000000, 0.000000000000000000, 7.000000000000000000 ) ) ;
#128 = DIRECTION ( 'NONE',  ( -0.000000000000000000, -0.000000000000000000, -1.000000000000000000 ) ) ;
#129 = DIRECTION ( 'NONE',  ( 0.000000000000000000, 0.000000000000000000, 1.000000000000000000 ) ) ;
#130 = DESIGN_CONTEXT ( 'detailed design', #54, 'design' ) ;
#131 = EDGE_CURVE ( 'NONE', #15, #248, #202, .T. ) ;
#132 = DIRECTION ( 'NONE',  ( 0.000000000000000000, 0.000000000000000000, 1.000000000000000000 ) ) ;
#133 = AXIS2_PLACEMENT_3D ( 'NONE', #121, #194, #253 ) ;
#134 = PRODUCT ( 'bfda', 'bfda', '', ( #80 ) ) ;
#135 = DIRECTION ( 'NONE',  ( 1.000000000000000000, 0.000000000000000000, 0.000000000000000000 ) ) ;
#136 = EDGE_CURVE ( 'NONE', #233, #200, #28, .T. ) ;
#137 = VERTEX_POINT ( 'NONE', #110 ) ;
#138 = CC_DESIGN_PERSON_AND_ORGANIZATION_ASSIGNMENT ( #64, #45, ( #192 ) ) ;
#139 = ORIENTED_EDGE ( 'NONE', *, *, #131, .T. ) ;
#140 = ORIENTED_EDGE ( 'NONE', *, *, #107, .F. ) ;
#141 = CALENDAR_DATE ( 2022, 7, 7 ) ;
#142 = VERTEX_POINT ( 'NONE', #70 ) ;
#143 = ORIENTED_EDGE ( 'NONE', *, *, #136, .F. ) ;
#144 = COORDINATED_UNIVERSAL_TIME_OFFSET ( 1, 0, .AHEAD. ) ;
#145 = DIRECTION ( 'NONE',  ( 0.000000000000000000, 0.000000000000000000, 1.000000000000000000 ) ) ;
#146 = CARTESIAN_POINT ( 'NONE',  ( 0.000000000000000000, 0.000000000000000000, 7.000000000000000000 ) ) ;
#147 = PERSON_AND_ORGANIZATION ( #158, #163 ) ;
#148 = DIRECTION ( 'NONE',  ( 0.000000000000000000, 0.000000000000000000, 1.000000000000000000 ) ) ;
#149 = FACE_OUTER_BOUND ( 'NONE', #176, .T. ) ;
#150 = ADVANCED_FACE ( 'NONE', ( #149 ), #9, .F. ) ;
#151 = APPROVAL_PERSON_ORGANIZATION ( #122, #181, #57 ) ;
#152 = EDGE_CURVE ( 'NONE', #142, #200, #33, .T. ) ;
#153 = ORIENTED_EDGE ( 'NONE', *, *, #247, .F. ) ;
#154 = CARTESIAN_POINT ( 'NONE',  ( 0.000000000000000000, 0.000000000000000000, 0.000000000000000000 ) ) ;
#155 = EDGE_LOOP ( 'NONE', ( #231, #213 ) ) ;
#156 = ORIENTED_EDGE ( 'NONE', *, *, #131, .F. ) ;
#157 = APPLICATION_PROTOCOL_DEFINITION ( 'international standard', 'config_control_design', 1994, #54 ) ;
#158 = PERSON ( 'NEURÈENÝ', 'NEURÈENÝ', 'NEURÈENÝ', ('NEURÈENÝ'), ('NEURÈENÝ'), ('NEURÈENÝ') ) ;
#159 = ORIENTED_EDGE ( 'NONE', *, *, #60, .T. ) ;
#160 = AXIS2_PLACEMENT_3D ( 'NONE', #127, #86, #169 ) ;
#161 = VERTEX_POINT ( 'NONE', #186 ) ;
#162 = APPLICATION_CONTEXT ( 'configuration controlled 3d designs of mechanical parts and assemblies' ) ;
#163 = ORGANIZATION ( 'NEURÈENÝ', 'NEURÈENÝ', '' ) ;
#164 = AXIS2_PLACEMENT_3D ( 'NONE', #208, #94, #225 ) ;
#165 = CALENDAR_DATE ( 2022, 7, 7 ) ;
#166 = DATE_AND_TIME ( #112, #83 ) ;
#167 = DIRECTION ( 'NONE',  ( 0.000000000000000000, 0.000000000000000000, 1.000000000000000000 ) ) ;
#168 = LINE ( 'NONE', #108, #12 ) ;
#169 = DIRECTION ( 'NONE',  ( 1.000000000000000000, 0.000000000000000000, 0.000000000000000000 ) ) ;
#170 = DIRECTION ( 'NONE',  ( 1.000000000000000000, 0.000000000000000000, 0.000000000000000000 ) ) ;
#171 = COORDINATED_UNIVERSAL_TIME_OFFSET ( 1, 0, .AHEAD. ) ;
#172 = CIRCLE ( 'NONE', #227, 9.000000000000000000 ) ;
#173 = EDGE_LOOP ( 'NONE', ( #156, #123, #63, #102 ) ) ;
#174 = LINE ( 'NONE', #246, #114 ) ;
#175 =( GEOMETRIC_REPRESENTATION_CONTEXT ( 3 ) GLOBAL_UNCERTAINTY_ASSIGNED_CONTEXT ( ( #4 ) ) GLOBAL_UNIT_ASSIGNED_CONTEXT ( ( #13, #36, #195 ) ) REPRESENTATION_CONTEXT ( 'NONE', 'WORKASPACE' ) );
#176 = EDGE_LOOP ( 'NONE', ( #37, #254 ) ) ;
#177 = PERSON_AND_ORGANIZATION_ROLE ( 'design_owner' ) ;
#178 = FACE_OUTER_BOUND ( 'NONE', #235, .T. ) ;
#179 = ORIENTED_EDGE ( 'NONE', *, *, #73, .F. ) ;
#180 = AXIS2_PLACEMENT_3D ( 'NONE', #244, #132, #135 ) ;
#181 = APPROVAL ( #230, 'NEURÈENÝ' ) ;
#182 = APPROVAL_PERSON_ORGANIZATION ( #205, #106, #8 ) ;
#183 = CYLINDRICAL_SURFACE ( 'NONE', #53, 9.000000000000000000 ) ;
#184 = APPROVAL_STATUS ( 'not_yet_approved' ) ;
#185 = DIRECTION ( 'NONE',  ( 0.000000000000000000, 0.000000000000000000, 1.000000000000000000 ) ) ;
#186 = CARTESIAN_POINT ( 'NONE',  ( 6.250000000000000000, 7.654042494670957606E-16, 507.0000000000000000 ) ) ;
#187 = AXIS2_PLACEMENT_3D ( 'NONE', #72, #209, #67 ) ;
#188 = AXIS2_PLACEMENT_3D ( 'NONE', #74, #101, #249 ) ;
#189 = DIRECTION ( 'NONE',  ( -0.000000000000000000, -0.000000000000000000, -1.000000000000000000 ) ) ;
#190 = AXIS2_PLACEMENT_3D ( 'NONE', #242, #128, #219 ) ;
#191 = FACE_OUTER_BOUND ( 'NONE', #155, .T. ) ;
#192 = PRODUCT_DEFINITION_FORMATION_WITH_SPECIFIED_SOURCE ( 'LIBOVOLNÝ', '', #134, .NOT_KNOWN. ) ;
#193 = CALENDAR_DATE ( 2022, 7, 7 ) ;
#194 = DIRECTION ( 'NONE',  ( 0.000000000000000000, 0.000000000000000000, 1.000000000000000000 ) ) ;
#195 =( NAMED_UNIT ( * ) SI_UNIT ( $, .STERADIAN. ) SOLID_ANGLE_UNIT ( ) );
#196 = CYLINDRICAL_SURFACE ( 'NONE', #82, 6.250000000000000000 ) ;
#197 = DIRECTION ( 'NONE',  ( 0.000000000000000000, 0.000000000000000000, 1.000000000000000000 ) ) ;
#198 = LOCAL_TIME ( 19, 17, 32.00000000000000000, #171 ) ;
#199 = CARTESIAN_POINT ( 'NONE',  ( 0.000000000000000000, 0.000000000000000000, 507.0000000000000000 ) ) ;
#200 = VERTEX_POINT ( 'NONE', #48 ) ;
#201 = CIRCLE ( 'NONE', #100, 6.250000000000000000 ) ;
#202 = LINE ( 'NONE', #21, #7 ) ;
#203 = FACE_OUTER_BOUND ( 'NONE', #17, .T. ) ;
#204 = MANIFOLD_SOLID_BREP ( 'Pøidat vysunutím3', #116 ) ;
#205 = PERSON_AND_ORGANIZATION ( #158, #163 ) ;
#206 = CARTESIAN_POINT ( 'NONE',  ( -6.250000000000000000, 0.000000000000000000, 507.0000000000000000 ) ) ;
#207 = PERSON_AND_ORGANIZATION ( #158, #163 ) ;
#208 = CARTESIAN_POINT ( 'NONE',  ( 0.000000000000000000, 0.000000000000000000, 7.000000000000000000 ) ) ;
#209 = DIRECTION ( 'NONE',  ( -0.000000000000000000, -0.000000000000000000, -1.000000000000000000 ) ) ;
#210 = AXIS2_PLACEMENT_3D ( 'NONE', #238, #129, #44 ) ;
#211 = FACE_OUTER_BOUND ( 'NONE', #58, .T. ) ;
#212 = APPROVAL_DATE_TIME ( #61, #20 ) ;
#213 = ORIENTED_EDGE ( 'NONE', *, *, #107, .T. ) ;
#214 = ORIENTED_EDGE ( 'NONE', *, *, #71, .T. ) ;
#215 = DATE_AND_TIME ( #141, #198 ) ;
#216 = AXIS2_PLACEMENT_3D ( 'NONE', #222, #185, #3 ) ;
#217 = EDGE_LOOP ( 'NONE', ( #62, #81 ) ) ;
#218 = VECTOR ( 'NONE', #113, 1000.000000000000000 ) ;
#219 = DIRECTION ( 'NONE',  ( -1.000000000000000000, 0.000000000000000000, 0.000000000000000000 ) ) ;
#220 = EDGE_CURVE ( 'NONE', #137, #248, #39, .T. ) ;
#221 = CC_DESIGN_SECURITY_CLASSIFICATION ( #125, ( #192 ) ) ;
#222 = CARTESIAN_POINT ( 'NONE',  ( 0.000000000000000000, 0.000000000000000000, 0.000000000000000000 ) ) ;
#223 = DATE_AND_TIME ( #165, #243 ) ;
#224 = DIRECTION ( 'NONE',  ( -0.000000000000000000, -0.000000000000000000, -1.000000000000000000 ) ) ;
#225 = DIRECTION ( 'NONE',  ( 1.000000000000000000, 0.000000000000000000, 0.000000000000000000 ) ) ;
#226 = CIRCLE ( 'NONE', #210, 9.000000000000000000 ) ;
#227 = AXIS2_PLACEMENT_3D ( 'NONE', #146, #126, #124 ) ;
#228 = APPROVAL_ROLE ( '' ) ;
#229 = ORIENTED_EDGE ( 'NONE', *, *, #252, .F. ) ;
#230 = APPROVAL_STATUS ( 'not_yet_approved' ) ;
#231 = ORIENTED_EDGE ( 'NONE', *, *, #119, .T. ) ;
#232 = PERSON_AND_ORGANIZATION ( #158, #163 ) ;
#233 = VERTEX_POINT ( 'NONE', #206 ) ;
#234 = CC_DESIGN_APPROVAL ( #181, ( #192 ) ) ;
#235 = EDGE_LOOP ( 'NONE', ( #140, #139, #59, #153 ) ) ;
#236 = PERSON_AND_ORGANIZATION_ROLE ( 'design_supplier' ) ;
#237 = DIRECTION ( 'NONE',  ( -0.000000000000000000, -0.000000000000000000, -1.000000000000000000 ) ) ;
#238 = CARTESIAN_POINT ( 'NONE',  ( 0.000000000000000000, 0.000000000000000000, 0.000000000000000000 ) ) ;
#239 = PRODUCT_DEFINITION ( 'NEZNÁMÝ', '', #192, #130 ) ;
#240 = CYLINDRICAL_SURFACE ( 'NONE', #187, 6.250000000000000000 ) ;
#241 = CC_DESIGN_PERSON_AND_ORGANIZATION_ASSIGNMENT ( #147, #66, ( #125 ) ) ;
#242 = CARTESIAN_POINT ( 'NONE',  ( 0.000000000000000000, 0.000000000000000000, 7.000000000000000000 ) ) ;
#243 = LOCAL_TIME ( 19, 17, 32.00000000000000000, #69 ) ;
#244 = CARTESIAN_POINT ( 'NONE',  ( 0.000000000000000000, 0.000000000000000000, 507.0000000000000000 ) ) ;
#245 = ADVANCED_FACE ( 'NONE', ( #16, #191 ), #18, .T. ) ;
#246 = CARTESIAN_POINT ( 'NONE',  ( -9.000000000000000000, 0.000000000000000000, 7.000000000000000000 ) ) ;
#247 = EDGE_CURVE ( 'NONE', #56, #137, #174, .T. ) ;
#248 = VERTEX_POINT ( 'NONE', #117 ) ;
#249 = DIRECTION ( 'NONE',  ( 1.000000000000000000, 0.000000000000000000, -0.000000000000000000 ) ) ;
#250 = CIRCLE ( 'NONE', #180, 6.250000000000000000 ) ;
#251 = EDGE_LOOP ( 'NONE', ( #19, #77 ) ) ;
#252 = EDGE_CURVE ( 'NONE', #233, #161, #250, .T. ) ;
#253 = DIRECTION ( 'NONE',  ( 1.000000000000000000, 0.000000000000000000, -0.000000000000000000 ) ) ;
#254 = ORIENTED_EDGE ( 'NONE', *, *, #32, .F. ) ;
#255 = APPROVAL_PERSON_ORGANIZATION ( #232, #20, #228 ) ;
ENDSEC;
END-ISO-10303-21;
