ISO-10303-21;
HEADER;
FILE_DESCRIPTION (( 'STEP AP203' ),
    '1' );
FILE_NAME ('015a.STEP',
    '2023-02-13T14:24:11',
    ( '' ),
    ( '' ),
    'SwSTEP 2.0',
    'SolidWorks 2019',
    '' );
FILE_SCHEMA (( 'CONFIG_CONTROL_DESIGN' ));
ENDSEC;

DATA;
#1 = CARTESIAN_POINT ( 'NONE',  ( 0.000000000000000000, 0.000000000000000000, 5.000000000000000000 ) ) ;
#2 = ADVANCED_BREP_SHAPE_REPRESENTATION ( '015a', ( #211, #236 ), #232 ) ;
#3 = CARTESIAN_POINT ( 'NONE',  ( -6.000000000000000888, 0.000000000000000000, 5.000000000000000000 ) ) ;
#4 = DIRECTION ( 'NONE',  ( 1.000000000000000000, 0.000000000000000000, 0.000000000000000000 ) ) ;
#5 = COORDINATED_UNIVERSAL_TIME_OFFSET ( 1, 0, .AHEAD. ) ;
#6 = DIRECTION ( 'NONE',  ( -0.000000000000000000, -0.000000000000000000, -1.000000000000000000 ) ) ;
#7 = VERTEX_POINT ( 'NONE', #229 ) ;
#8 = CIRCLE ( 'NONE', #26, 3.750000000000000000 ) ;
#9 = EDGE_CURVE ( 'NONE', #7, #138, #72, .T. ) ;
#10 = ORIENTED_EDGE ( 'NONE', *, *, #41, .F. ) ;
#11 = EDGE_LOOP ( 'NONE', ( #85, #71 ) ) ;
#12 = DATE_AND_TIME ( #126, #231 ) ;
#13 = AXIS2_PLACEMENT_3D ( 'NONE', #1, #215, #4 ) ;
#14 = ORIENTED_EDGE ( 'NONE', *, *, #91, .T. ) ;
#15 = CARTESIAN_POINT ( 'NONE',  ( -3.750000000000000000, 0.000000000000000000, 315.0000000000000000 ) ) ;
#16 = AXIS2_PLACEMENT_3D ( 'NONE', #251, #34, #148 ) ;
#17 = APPROVAL_PERSON_ORGANIZATION ( #198, #54, #193 ) ;
#18 = PERSON ( 'NEURÈENÝ', 'NEURÈENÝ', 'NEURÈENÝ', ('NEURÈENÝ'), ('NEURÈENÝ'), ('NEURÈENÝ') ) ;
#19 = APPROVAL_STATUS ( 'not_yet_approved' ) ;
#20 = CIRCLE ( 'NONE', #150, 3.750000000000000000 ) ;
#21 = LOCAL_TIME ( 15, 24, 11.00000000000000000, #174 ) ;
#22 = ORGANIZATION ( 'NEURÈENÝ', 'NEURÈENÝ', '' ) ;
#23 = EDGE_CURVE ( 'NONE', #100, #166, #101, .T. ) ;
#24 = FACE_OUTER_BOUND ( 'NONE', #63, .T. ) ;
#25 = COORDINATED_UNIVERSAL_TIME_OFFSET ( 1, 0, .AHEAD. ) ;
#26 = AXIS2_PLACEMENT_3D ( 'NONE', #81, #75, #153 ) ;
#27 = CARTESIAN_POINT ( 'NONE',  ( 6.000000000000000888, 7.347880794884120722E-16, 5.000000000000000000 ) ) ;
#28 = ADVANCED_FACE ( 'NONE', ( #29 ), #192, .F. ) ;
#29 = FACE_OUTER_BOUND ( 'NONE', #201, .T. ) ;
#30 = ORIENTED_EDGE ( 'NONE', *, *, #247, .F. ) ;
#31 = ORIENTED_EDGE ( 'NONE', *, *, #41, .T. ) ;
#32 = CLOSED_SHELL ( 'NONE', ( #189, #125, #212, #252, #28, #214, #49 ) ) ;
#33 = DATE_AND_TIME ( #188, #52 ) ;
#34 = DIRECTION ( 'NONE',  ( 0.000000000000000000, 0.000000000000000000, 1.000000000000000000 ) ) ;
#35 = AXIS2_PLACEMENT_3D ( 'NONE', #187, #143, #225 ) ;
#36 = CARTESIAN_POINT ( 'NONE',  ( 3.750000000000000000, 4.592425496802573972E-16, 315.0000000000000000 ) ) ;
#37 = FACE_OUTER_BOUND ( 'NONE', #228, .T. ) ;
#38 = PERSON_AND_ORGANIZATION ( #18, #22 ) ;
#39 = APPROVAL_DATE_TIME ( #55, #165 ) ;
#40 = DIRECTION ( 'NONE',  ( -1.000000000000000000, 0.000000000000000000, 0.000000000000000000 ) ) ;
#41 = EDGE_CURVE ( 'NONE', #226, #245, #69, .T. ) ;
#42 = APPLICATION_CONTEXT ( 'configuration controlled 3d designs of mechanical parts and assemblies' ) ;
#43 = ORIENTED_EDGE ( 'NONE', *, *, #23, .F. ) ;
#44 = EDGE_CURVE ( 'NONE', #164, #181, #130, .T. ) ;
#45 = ORIENTED_EDGE ( 'NONE', *, *, #70, .T. ) ;
#46 = DATE_TIME_ROLE ( 'classification_date' ) ;
#47 =( NAMED_UNIT ( * ) SI_UNIT ( $, .STERADIAN. ) SOLID_ANGLE_UNIT ( ) );
#48 = EDGE_LOOP ( 'NONE', ( #88, #162, #14, #66 ) ) ;
#49 = ADVANCED_FACE ( 'NONE', ( #24 ), #173, .T. ) ;
#50 = PLANE ( 'NONE',  #35 ) ;
#51 = CARTESIAN_POINT ( 'NONE',  ( 0.000000000000000000, 0.000000000000000000, 5.000000000000000000 ) ) ;
#52 = LOCAL_TIME ( 15, 24, 11.00000000000000000, #53 ) ;
#53 = COORDINATED_UNIVERSAL_TIME_OFFSET ( 1, 0, .AHEAD. ) ;
#54 = APPROVAL ( #134, 'NEURÈENÝ' ) ;
#55 = DATE_AND_TIME ( #77, #167 ) ;
#56 = APPROVAL ( #90, 'NEURÈENÝ' ) ;
#57 = PERSON_AND_ORGANIZATION_ROLE ( 'creator' ) ;
#58 = CARTESIAN_POINT ( 'NONE',  ( 3.750000000000000000, 4.592425496802573972E-16, 315.0000000000000000 ) ) ;
#59 = CARTESIAN_POINT ( 'NONE',  ( 0.000000000000000000, 0.000000000000000000, 5.000000000000000000 ) ) ;
#60 = DIRECTION ( 'NONE',  ( 0.000000000000000000, 0.000000000000000000, 1.000000000000000000 ) ) ;
#61 = SHAPE_DEFINITION_REPRESENTATION ( #97, #2 ) ;
#62 = CYLINDRICAL_SURFACE ( 'NONE', #89, 3.750000000000000000 ) ;
#63 = EDGE_LOOP ( 'NONE', ( #31, #122 ) ) ;
#64 = EDGE_CURVE ( 'NONE', #181, #164, #8, .T. ) ;
#65 = FACE_OUTER_BOUND ( 'NONE', #68, .T. ) ;
#66 = ORIENTED_EDGE ( 'NONE', *, *, #9, .T. ) ;
#67 = DIRECTION ( 'NONE',  ( -0.000000000000000000, -0.000000000000000000, -1.000000000000000000 ) ) ;
#68 = EDGE_LOOP ( 'NONE', ( #205, #45, #144, #224 ) ) ;
#69 = CIRCLE ( 'NONE', #117, 3.750000000000000000 ) ;
#70 = EDGE_CURVE ( 'NONE', #245, #164, #96, .T. ) ;
#71 = ORIENTED_EDGE ( 'NONE', *, *, #23, .T. ) ;
#72 = CIRCLE ( 'NONE', #16, 6.000000000000000888 ) ;
#73 = CARTESIAN_POINT ( 'NONE',  ( -3.750000000000000000, 0.000000000000000000, 315.0000000000000000 ) ) ;
#74 = DIRECTION ( 'NONE',  ( -1.000000000000000000, 0.000000000000000000, 0.000000000000000000 ) ) ;
#75 = DIRECTION ( 'NONE',  ( 0.000000000000000000, 0.000000000000000000, 1.000000000000000000 ) ) ;
#76 = DATE_AND_TIME ( #177, #121 ) ;
#77 = CALENDAR_DATE ( 2023, 13, 2 ) ;
#78 = DIRECTION ( 'NONE',  ( -0.000000000000000000, -0.000000000000000000, -1.000000000000000000 ) ) ;
#79 = PERSON_AND_ORGANIZATION ( #18, #22 ) ;
#80 = CARTESIAN_POINT ( 'NONE',  ( 6.000000000000000888, 7.347880794884120722E-16, 5.000000000000000000 ) ) ;
#81 = CARTESIAN_POINT ( 'NONE',  ( 0.000000000000000000, 0.000000000000000000, 5.000000000000000000 ) ) ;
#82 = DIRECTION ( 'NONE',  ( -1.000000000000000000, 0.000000000000000000, 0.000000000000000000 ) ) ;
#83 = ORIENTED_EDGE ( 'NONE', *, *, #242, .T. ) ;
#84 = APPROVAL_PERSON_ORGANIZATION ( #240, #56, #107 ) ;
#85 = ORIENTED_EDGE ( 'NONE', *, *, #128, .T. ) ;
#86 = ORIENTED_EDGE ( 'NONE', *, *, #108, .T. ) ;
#87 = CC_DESIGN_PERSON_AND_ORGANIZATION_ASSIGNMENT ( #38, #221, ( #93 ) ) ;
#88 = ORIENTED_EDGE ( 'NONE', *, *, #108, .F. ) ;
#89 = AXIS2_PLACEMENT_3D ( 'NONE', #127, #208, #186 ) ;
#90 = APPROVAL_STATUS ( 'not_yet_approved' ) ;
#91 = EDGE_CURVE ( 'NONE', #166, #7, #216, .T. ) ;
#92 = EDGE_CURVE ( 'NONE', #245, #226, #20, .T. ) ;
#93 = PRODUCT_DEFINITION_FORMATION_WITH_SPECIFIED_SOURCE ( 'LIBOVOLNÝ', '', #140, .NOT_KNOWN. ) ;
#94 = DIRECTION ( 'NONE',  ( 0.000000000000000000, 0.000000000000000000, 1.000000000000000000 ) ) ;
#95 = DIRECTION ( 'NONE',  ( 1.000000000000000000, 0.000000000000000000, 0.000000000000000000 ) ) ;
#96 = LINE ( 'NONE', #58, #170 ) ;
#97 = PRODUCT_DEFINITION_SHAPE ( 'NONE', 'NONE',  #103 ) ;
#98 = DIRECTION ( 'NONE',  ( 1.000000000000000000, 0.000000000000000000, 0.000000000000000000 ) ) ;
#99 = CC_DESIGN_DATE_AND_TIME_ASSIGNMENT ( #33, #46, ( #163 ) ) ;
#100 = VERTEX_POINT ( 'NONE', #27 ) ;
#101 = CIRCLE ( 'NONE', #109, 6.000000000000000888 ) ;
#102 = ORIENTED_EDGE ( 'NONE', *, *, #9, .F. ) ;
#103 = PRODUCT_DEFINITION ( 'NEZNÁMÝ', '', #93, #182 ) ;
#104 =( NAMED_UNIT ( * ) PLANE_ANGLE_UNIT ( ) SI_UNIT ( $, .RADIAN. ) );
#105 = COORDINATED_UNIVERSAL_TIME_OFFSET ( 1, 0, .AHEAD. ) ;
#106 = FACE_OUTER_BOUND ( 'NONE', #11, .T. ) ;
#107 = APPROVAL_ROLE ( '' ) ;
#108 = EDGE_CURVE ( 'NONE', #100, #138, #155, .T. ) ;
#109 = AXIS2_PLACEMENT_3D ( 'NONE', #51, #123, #112 ) ;
#110 = APPLICATION_PROTOCOL_DEFINITION ( 'international standard', 'config_control_design', 1994, #254 ) ;
#111 = CC_DESIGN_SECURITY_CLASSIFICATION ( #163, ( #93 ) ) ;
#112 = DIRECTION ( 'NONE',  ( 1.000000000000000000, 0.000000000000000000, 0.000000000000000000 ) ) ;
#113 = DATE_TIME_ROLE ( 'creation_date' ) ;
#114 = CARTESIAN_POINT ( 'NONE',  ( 0.000000000000000000, 0.000000000000000000, 315.0000000000000000 ) ) ;
#115 = DIRECTION ( 'NONE',  ( 1.000000000000000000, 0.000000000000000000, 0.000000000000000000 ) ) ;
#116 = SECURITY_CLASSIFICATION_LEVEL ( 'unclassified' ) ;
#117 = AXIS2_PLACEMENT_3D ( 'NONE', #222, #118, #98 ) ;
#118 = DIRECTION ( 'NONE',  ( 0.000000000000000000, 0.000000000000000000, 1.000000000000000000 ) ) ;
#119 = CC_DESIGN_APPROVAL ( #165, ( #103 ) ) ;
#120 = ORIENTED_EDGE ( 'NONE', *, *, #64, .F. ) ;
#121 = LOCAL_TIME ( 15, 24, 11.00000000000000000, #25 ) ;
#122 = ORIENTED_EDGE ( 'NONE', *, *, #92, .T. ) ;
#123 = DIRECTION ( 'NONE',  ( 0.000000000000000000, 0.000000000000000000, 1.000000000000000000 ) ) ;
#124 = APPROVAL_DATE_TIME ( #12, #56 ) ;
#125 = ADVANCED_FACE ( 'NONE', ( #37 ), #233, .T. ) ;
#126 = CALENDAR_DATE ( 2023, 13, 2 ) ;
#127 = CARTESIAN_POINT ( 'NONE',  ( 0.000000000000000000, 0.000000000000000000, 315.0000000000000000 ) ) ;
#128 = EDGE_CURVE ( 'NONE', #166, #100, #253, .T. ) ;
#129 = UNCERTAINTY_MEASURE_WITH_UNIT (LENGTH_MEASURE( 1.000000000000000082E-05 ), #204, 'distance_accuracy_value', 'NONE');
#130 = CIRCLE ( 'NONE', #13, 3.750000000000000000 ) ;
#131 = AXIS2_PLACEMENT_3D ( 'NONE', #184, #161, #249 ) ;
#132 = DIRECTION ( 'NONE',  ( -0.000000000000000000, -0.000000000000000000, -1.000000000000000000 ) ) ;
#133 = CARTESIAN_POINT ( 'NONE',  ( 0.000000000000000000, 0.000000000000000000, 315.0000000000000000 ) ) ;
#134 = APPROVAL_STATUS ( 'not_yet_approved' ) ;
#135 = CARTESIAN_POINT ( 'NONE',  ( 0.000000000000000000, 0.000000000000000000, 5.000000000000000000 ) ) ;
#136 = CALENDAR_DATE ( 2023, 13, 2 ) ;
#137 = APPLICATION_PROTOCOL_DEFINITION ( 'international standard', 'config_control_design', 1994, #42 ) ;
#138 = VERTEX_POINT ( 'NONE', #243 ) ;
#139 = PERSON_AND_ORGANIZATION ( #18, #22 ) ;
#140 = PRODUCT ( '015a', '015a', '', ( #196 ) ) ;
#141 = PERSON_AND_ORGANIZATION ( #18, #22 ) ;
#142 = CC_DESIGN_PERSON_AND_ORGANIZATION_ASSIGNMENT ( #141, #235, ( #93 ) ) ;
#143 = DIRECTION ( 'NONE',  ( 0.000000000000000000, 0.000000000000000000, 1.000000000000000000 ) ) ;
#144 = ORIENTED_EDGE ( 'NONE', *, *, #44, .T. ) ;
#145 = FACE_OUTER_BOUND ( 'NONE', #48, .T. ) ;
#146 = EDGE_LOOP ( 'NONE', ( #120, #246 ) ) ;
#147 = ORIENTED_EDGE ( 'NONE', *, *, #70, .F. ) ;
#148 = DIRECTION ( 'NONE',  ( 1.000000000000000000, 0.000000000000000000, 0.000000000000000000 ) ) ;
#149 = CC_DESIGN_PERSON_AND_ORGANIZATION_ASSIGNMENT ( #230, #151, ( #163 ) ) ;
#150 = AXIS2_PLACEMENT_3D ( 'NONE', #220, #94, #115 ) ;
#151 = PERSON_AND_ORGANIZATION_ROLE ( 'classification_officer' ) ;
#152 = VECTOR ( 'NONE', #78, 1000.000000000000000 ) ;
#153 = DIRECTION ( 'NONE',  ( 1.000000000000000000, 0.000000000000000000, 0.000000000000000000 ) ) ;
#154 = APPROVAL_DATE_TIME ( #76, #54 ) ;
#155 = LINE ( 'NONE', #80, #160 ) ;
#156 = DIRECTION ( 'NONE',  ( 1.000000000000000000, 0.000000000000000000, -0.000000000000000000 ) ) ;
#157 = CC_DESIGN_APPROVAL ( #56, ( #163 ) ) ;
#158 = APPROVAL_ROLE ( '' ) ;
#159 = CARTESIAN_POINT ( 'NONE',  ( 3.750000000000000000, 4.592425496802573972E-16, 5.000000000000000000 ) ) ;
#160 = VECTOR ( 'NONE', #132, 1000.000000000000000 ) ;
#161 = DIRECTION ( 'NONE',  ( 0.000000000000000000, 0.000000000000000000, 1.000000000000000000 ) ) ;
#162 = ORIENTED_EDGE ( 'NONE', *, *, #128, .F. ) ;
#163 = SECURITY_CLASSIFICATION ( '', '', #116 ) ;
#164 = VERTEX_POINT ( 'NONE', #159 ) ;
#165 = APPROVAL ( #19, 'NEURÈENÝ' ) ;
#166 = VERTEX_POINT ( 'NONE', #223 ) ;
#167 = LOCAL_TIME ( 15, 24, 11.00000000000000000, #5 ) ;
#168 = CC_DESIGN_PERSON_AND_ORGANIZATION_ASSIGNMENT ( #171, #57, ( #103 ) ) ;
#169 = AXIS2_PLACEMENT_3D ( 'NONE', #191, #172, #74 ) ;
#170 = VECTOR ( 'NONE', #176, 1000.000000000000000 ) ;
#171 = PERSON_AND_ORGANIZATION ( #18, #22 ) ;
#172 = DIRECTION ( 'NONE',  ( -0.000000000000000000, -0.000000000000000000, -1.000000000000000000 ) ) ;
#173 = PLANE ( 'NONE',  #202 ) ;
#174 = COORDINATED_UNIVERSAL_TIME_OFFSET ( 1, 0, .AHEAD. ) ;
#175 = AXIS2_PLACEMENT_3D ( 'NONE', #195, #197, #178 ) ;
#176 = DIRECTION ( 'NONE',  ( -0.000000000000000000, -0.000000000000000000, -1.000000000000000000 ) ) ;
#177 = CALENDAR_DATE ( 2023, 13, 2 ) ;
#178 = DIRECTION ( 'NONE',  ( 1.000000000000000000, 0.000000000000000000, -0.000000000000000000 ) ) ;
#179 = CARTESIAN_POINT ( 'NONE',  ( -3.750000000000000000, 0.000000000000000000, 5.000000000000000000 ) ) ;
#180 = EDGE_LOOP ( 'NONE', ( #147, #10, #83, #219 ) ) ;
#181 = VERTEX_POINT ( 'NONE', #179 ) ;
#182 = DESIGN_CONTEXT ( 'detailed design', #254, 'design' ) ;
#183 = CYLINDRICAL_SURFACE ( 'NONE', #210, 6.000000000000000888 ) ;
#184 = CARTESIAN_POINT ( 'NONE',  ( 0.000000000000000000, 0.000000000000000000, 0.000000000000000000 ) ) ;
#185 = ORIENTED_EDGE ( 'NONE', *, *, #247, .T. ) ;
#186 = DIRECTION ( 'NONE',  ( -1.000000000000000000, 0.000000000000000000, 0.000000000000000000 ) ) ;
#187 = CARTESIAN_POINT ( 'NONE',  ( 0.000000000000000000, 0.000000000000000000, 5.000000000000000000 ) ) ;
#188 = CALENDAR_DATE ( 2023, 13, 2 ) ;
#189 = ADVANCED_FACE ( 'NONE', ( #65 ), #238, .T. ) ;
#190 = PERSON_AND_ORGANIZATION_ROLE ( 'design_owner' ) ;
#191 = CARTESIAN_POINT ( 'NONE',  ( 0.000000000000000000, 0.000000000000000000, 5.000000000000000000 ) ) ;
#192 = PLANE ( 'NONE',  #175 ) ;
#193 = APPROVAL_ROLE ( '' ) ;
#194 = APPROVAL_PERSON_ORGANIZATION ( #139, #165, #158 ) ;
#195 = CARTESIAN_POINT ( 'NONE',  ( 0.000000000000000000, 0.000000000000000000, 0.000000000000000000 ) ) ;
#196 = MECHANICAL_CONTEXT ( 'NONE', #42, 'mechanical' ) ;
#197 = DIRECTION ( 'NONE',  ( 0.000000000000000000, 0.000000000000000000, 1.000000000000000000 ) ) ;
#198 = PERSON_AND_ORGANIZATION ( #18, #22 ) ;
#199 = AXIS2_PLACEMENT_3D ( 'NONE', #135, #203, #248 ) ;
#200 = CC_DESIGN_PERSON_AND_ORGANIZATION_ASSIGNMENT ( #79, #190, ( #140 ) ) ;
#201 = EDGE_LOOP ( 'NONE', ( #102, #30 ) ) ;
#202 = AXIS2_PLACEMENT_3D ( 'NONE', #133, #255, #156 ) ;
#203 = DIRECTION ( 'NONE',  ( 0.000000000000000000, 0.000000000000000000, 1.000000000000000000 ) ) ;
#204 =( LENGTH_UNIT ( ) NAMED_UNIT ( * ) SI_UNIT ( .MILLI., .METRE. ) );
#205 = ORIENTED_EDGE ( 'NONE', *, *, #92, .F. ) ;
#206 = AXIS2_PLACEMENT_3D ( 'NONE', #114, #67, #40 ) ;
#207 = DIRECTION ( 'NONE',  ( -0.000000000000000000, -0.000000000000000000, -1.000000000000000000 ) ) ;
#208 = DIRECTION ( 'NONE',  ( -0.000000000000000000, -0.000000000000000000, -1.000000000000000000 ) ) ;
#209 = ORIENTED_EDGE ( 'NONE', *, *, #91, .F. ) ;
#210 = AXIS2_PLACEMENT_3D ( 'NONE', #59, #6, #82 ) ;
#211 = MANIFOLD_SOLID_BREP ( 'Pøidat vysunutím3', #32 ) ;
#212 = ADVANCED_FACE ( 'NONE', ( #145 ), #183, .T. ) ;
#213 = VECTOR ( 'NONE', #207, 1000.000000000000000 ) ;
#214 = ADVANCED_FACE ( 'NONE', ( #241 ), #62, .T. ) ;
#215 = DIRECTION ( 'NONE',  ( 0.000000000000000000, 0.000000000000000000, 1.000000000000000000 ) ) ;
#216 = LINE ( 'NONE', #3, #152 ) ;
#217 = CC_DESIGN_APPROVAL ( #54, ( #93 ) ) ;
#218 = PRODUCT_RELATED_PRODUCT_CATEGORY ( 'detail', '', ( #140 ) ) ;
#219 = ORIENTED_EDGE ( 'NONE', *, *, #64, .T. ) ;
#220 = CARTESIAN_POINT ( 'NONE',  ( 0.000000000000000000, 0.000000000000000000, 315.0000000000000000 ) ) ;
#221 = PERSON_AND_ORGANIZATION_ROLE ( 'design_supplier' ) ;
#222 = CARTESIAN_POINT ( 'NONE',  ( 0.000000000000000000, 0.000000000000000000, 315.0000000000000000 ) ) ;
#223 = CARTESIAN_POINT ( 'NONE',  ( -6.000000000000000888, 0.000000000000000000, 5.000000000000000000 ) ) ;
#224 = ORIENTED_EDGE ( 'NONE', *, *, #242, .F. ) ;
#225 = DIRECTION ( 'NONE',  ( 1.000000000000000000, 0.000000000000000000, -0.000000000000000000 ) ) ;
#226 = VERTEX_POINT ( 'NONE', #15 ) ;
#227 = LINE ( 'NONE', #73, #213 ) ;
#228 = EDGE_LOOP ( 'NONE', ( #43, #86, #185, #209 ) ) ;
#229 = CARTESIAN_POINT ( 'NONE',  ( -6.000000000000000888, 0.000000000000000000, 0.000000000000000000 ) ) ;
#230 = PERSON_AND_ORGANIZATION ( #18, #22 ) ;
#231 = LOCAL_TIME ( 15, 24, 11.00000000000000000, #105 ) ;
#232 =( GEOMETRIC_REPRESENTATION_CONTEXT ( 3 ) GLOBAL_UNCERTAINTY_ASSIGNED_CONTEXT ( ( #129 ) ) GLOBAL_UNIT_ASSIGNED_CONTEXT ( ( #204, #104, #47 ) ) REPRESENTATION_CONTEXT ( 'NONE', 'WORKASPACE' ) );
#233 = CYLINDRICAL_SURFACE ( 'NONE', #169, 6.000000000000000888 ) ;
#234 = CC_DESIGN_DATE_AND_TIME_ASSIGNMENT ( #237, #113, ( #103 ) ) ;
#235 = PERSON_AND_ORGANIZATION_ROLE ( 'creator' ) ;
#236 = AXIS2_PLACEMENT_3D ( 'NONE', #239, #60, #95 ) ;
#237 = DATE_AND_TIME ( #136, #21 ) ;
#238 = CYLINDRICAL_SURFACE ( 'NONE', #206, 3.750000000000000000 ) ;
#239 = CARTESIAN_POINT ( 'NONE',  ( 0.000000000000000000, 0.000000000000000000, 0.000000000000000000 ) ) ;
#240 = PERSON_AND_ORGANIZATION ( #18, #22 ) ;
#241 = FACE_OUTER_BOUND ( 'NONE', #180, .T. ) ;
#242 = EDGE_CURVE ( 'NONE', #226, #181, #227, .T. ) ;
#243 = CARTESIAN_POINT ( 'NONE',  ( 6.000000000000000888, 7.347880794884120722E-16, 0.000000000000000000 ) ) ;
#244 = FACE_BOUND ( 'NONE', #146, .T. ) ;
#245 = VERTEX_POINT ( 'NONE', #36 ) ;
#246 = ORIENTED_EDGE ( 'NONE', *, *, #44, .F. ) ;
#247 = EDGE_CURVE ( 'NONE', #138, #7, #250, .T. ) ;
#248 = DIRECTION ( 'NONE',  ( 1.000000000000000000, 0.000000000000000000, 0.000000000000000000 ) ) ;
#249 = DIRECTION ( 'NONE',  ( 1.000000000000000000, 0.000000000000000000, 0.000000000000000000 ) ) ;
#250 = CIRCLE ( 'NONE', #131, 6.000000000000000888 ) ;
#251 = CARTESIAN_POINT ( 'NONE',  ( 0.000000000000000000, 0.000000000000000000, 0.000000000000000000 ) ) ;
#252 = ADVANCED_FACE ( 'NONE', ( #244, #106 ), #50, .T. ) ;
#253 = CIRCLE ( 'NONE', #199, 6.000000000000000888 ) ;
#254 = APPLICATION_CONTEXT ( 'configuration controlled 3d designs of mechanical parts and assemblies' ) ;
#255 = DIRECTION ( 'NONE',  ( 0.000000000000000000, 0.000000000000000000, 1.000000000000000000 ) ) ;
ENDSEC;
END-ISO-10303-21;
