ISO-10303-21;
HEADER;
FILE_DESCRIPTION (( 'STEP AP203' ),
    '1' );
FILE_NAME ('d4d9.STEP',
    '2022-07-07T17:39:33',
    ( '' ),
    ( '' ),
    'SwSTEP 2.0',
    'SolidWorks 2019',
    '' );
FILE_SCHEMA (( 'CONFIG_CONTROL_DESIGN' ));
ENDSEC;

DATA;
#1 = ORIENTED_EDGE ( 'NONE', *, *, #136, .T. ) ;
#2 = ORIENTED_EDGE ( 'NONE', *, *, #204, .T. ) ;
#3 = AXIS2_PLACEMENT_3D ( 'NONE', #79, #159, #198 ) ;
#4 = AXIS2_PLACEMENT_3D ( 'NONE', #43, #105, #184 ) ;
#5 = DIRECTION ( 'NONE',  ( 1.000000000000000000, 0.000000000000000000, 0.000000000000000000 ) ) ;
#6 = DIRECTION ( 'NONE',  ( 1.000000000000000000, 0.000000000000000000, 0.000000000000000000 ) ) ;
#7 = UNCERTAINTY_MEASURE_WITH_UNIT (LENGTH_MEASURE( 1.000000000000000082E-05 ), #171, 'distance_accuracy_value', 'NONE');
#8 = DIRECTION ( 'NONE',  ( -0.000000000000000000, -0.000000000000000000, -1.000000000000000000 ) ) ;
#9 = AXIS2_PLACEMENT_3D ( 'NONE', #221, #99, #202 ) ;
#10 = DIRECTION ( 'NONE',  ( 0.000000000000000000, 0.000000000000000000, 1.000000000000000000 ) ) ;
#11 = DIRECTION ( 'NONE',  ( 0.000000000000000000, 0.000000000000000000, 1.000000000000000000 ) ) ;
#12 = PERSON_AND_ORGANIZATION ( #74, #80 ) ;
#13 = EDGE_CURVE ( 'NONE', #151, #20, #35, .T. ) ;
#14 = APPROVAL_DATE_TIME ( #84, #191 ) ;
#15 =( NAMED_UNIT ( * ) SI_UNIT ( $, .STERADIAN. ) SOLID_ANGLE_UNIT ( ) );
#16 = APPROVAL_ROLE ( '' ) ;
#17 = CC_DESIGN_PERSON_AND_ORGANIZATION_ASSIGNMENT ( #145, #143, ( #33 ) ) ;
#18 = EDGE_LOOP ( 'NONE', ( #208, #154, #57, #77 ) ) ;
#19 = ADVANCED_FACE ( 'NONE', ( #24 ), #252, .T. ) ;
#20 = VERTEX_POINT ( 'NONE', #94 ) ;
#21 = ORIENTED_EDGE ( 'NONE', *, *, #66, .F. ) ;
#22 =( GEOMETRIC_REPRESENTATION_CONTEXT ( 3 ) GLOBAL_UNCERTAINTY_ASSIGNED_CONTEXT ( ( #7 ) ) GLOBAL_UNIT_ASSIGNED_CONTEXT ( ( #171, #88, #15 ) ) REPRESENTATION_CONTEXT ( 'NONE', 'WORKASPACE' ) );
#23 = CLOSED_SHELL ( 'NONE', ( #253, #28, #19, #196, #62, #217, #86 ) ) ;
#24 = FACE_OUTER_BOUND ( 'NONE', #114, .T. ) ;
#25 = LOCAL_TIME ( 19, 39, 33.00000000000000000, #227 ) ;
#26 = CC_DESIGN_APPROVAL ( #191, ( #207 ) ) ;
#27 = DIRECTION ( 'NONE',  ( 0.000000000000000000, 0.000000000000000000, 1.000000000000000000 ) ) ;
#28 = ADVANCED_FACE ( 'NONE', ( #41 ), #122, .T. ) ;
#29 = CARTESIAN_POINT ( 'NONE',  ( 6.000000000000000888, 7.347880794884120722E-16, 5.000000000000000000 ) ) ;
#30 = PLANE ( 'NONE',  #78 ) ;
#31 = CYLINDRICAL_SURFACE ( 'NONE', #111, 3.100000000000000089 ) ;
#32 = FACE_OUTER_BOUND ( 'NONE', #137, .T. ) ;
#33 = PRODUCT_DEFINITION_FORMATION_WITH_SPECIFIED_SOURCE ( 'LIBOVOLNÝ', '', #90, .NOT_KNOWN. ) ;
#34 = DIRECTION ( 'NONE',  ( -0.000000000000000000, -0.000000000000000000, -1.000000000000000000 ) ) ;
#35 = CIRCLE ( 'NONE', #177, 3.100000000000000089 ) ;
#36 = COORDINATED_UNIVERSAL_TIME_OFFSET ( 1, 0, .AHEAD. ) ;
#37 = DATE_AND_TIME ( #250, #25 ) ;
#38 = PERSON_AND_ORGANIZATION_ROLE ( 'design_owner' ) ;
#39 = EDGE_LOOP ( 'NONE', ( #92, #254, #2, #235 ) ) ;
#40 = VECTOR ( 'NONE', #144, 1000.000000000000000 ) ;
#41 = FACE_OUTER_BOUND ( 'NONE', #18, .T. ) ;
#42 = LOCAL_TIME ( 19, 39, 33.00000000000000000, #36 ) ;
#43 = CARTESIAN_POINT ( 'NONE',  ( 0.000000000000000000, 0.000000000000000000, 5.000000000000000000 ) ) ;
#44 = DIRECTION ( 'NONE',  ( 1.000000000000000000, 0.000000000000000000, -0.000000000000000000 ) ) ;
#45 = PRODUCT_DEFINITION_SHAPE ( 'NONE', 'NONE',  #207 ) ;
#46 = CARTESIAN_POINT ( 'NONE',  ( -3.100000000000000089, 0.000000000000000000, 5.000000000000000000 ) ) ;
#47 = FACE_OUTER_BOUND ( 'NONE', #76, .T. ) ;
#48 = SECURITY_CLASSIFICATION_LEVEL ( 'unclassified' ) ;
#49 = DATE_AND_TIME ( #106, #53 ) ;
#50 = DATE_TIME_ROLE ( 'classification_date' ) ;
#51 = CIRCLE ( 'NONE', #194, 3.100000000000000089 ) ;
#52 = ORIENTED_EDGE ( 'NONE', *, *, #216, .F. ) ;
#53 = LOCAL_TIME ( 19, 39, 33.00000000000000000, #85 ) ;
#54 = ORIENTED_EDGE ( 'NONE', *, *, #13, .T. ) ;
#55 = DIRECTION ( 'NONE',  ( -1.000000000000000000, 0.000000000000000000, 0.000000000000000000 ) ) ;
#56 = VERTEX_POINT ( 'NONE', #240 ) ;
#57 = ORIENTED_EDGE ( 'NONE', *, *, #226, .T. ) ;
#58 = VECTOR ( 'NONE', #141, 1000.000000000000000 ) ;
#59 = DIRECTION ( 'NONE',  ( 1.000000000000000000, 0.000000000000000000, 0.000000000000000000 ) ) ;
#60 = LOCAL_TIME ( 19, 39, 33.00000000000000000, #205 ) ;
#61 = CARTESIAN_POINT ( 'NONE',  ( 0.000000000000000000, 0.000000000000000000, 5.000000000000000000 ) ) ;
#62 = ADVANCED_FACE ( 'NONE', ( #32 ), #103, .F. ) ;
#63 = DIRECTION ( 'NONE',  ( 0.000000000000000000, 0.000000000000000000, 1.000000000000000000 ) ) ;
#64 = CARTESIAN_POINT ( 'NONE',  ( -6.000000000000000888, 0.000000000000000000, 5.000000000000000000 ) ) ;
#65 = PERSON_AND_ORGANIZATION ( #74, #80 ) ;
#66 = EDGE_CURVE ( 'NONE', #20, #151, #51, .T. ) ;
#67 = CARTESIAN_POINT ( 'NONE',  ( 3.100000000000000089, 3.796405077356794918E-16, 165.0000000000000000 ) ) ;
#68 = PERSON_AND_ORGANIZATION_ROLE ( 'creator' ) ;
#69 = EDGE_CURVE ( 'NONE', #238, #178, #164, .T. ) ;
#70 = APPROVAL_PERSON_ORGANIZATION ( #71, #191, #165 ) ;
#71 = PERSON_AND_ORGANIZATION ( #74, #80 ) ;
#72 = VERTEX_POINT ( 'NONE', #139 ) ;
#73 = VERTEX_POINT ( 'NONE', #246 ) ;
#74 = PERSON ( 'NEURÈENÝ', 'NEURÈENÝ', 'NEURÈENÝ', ('NEURÈENÝ'), ('NEURÈENÝ'), ('NEURÈENÝ') ) ;
#75 = EDGE_CURVE ( 'NONE', #73, #72, #197, .T. ) ;
#76 = EDGE_LOOP ( 'NONE', ( #54, #176 ) ) ;
#77 = ORIENTED_EDGE ( 'NONE', *, *, #75, .F. ) ;
#78 = AXIS2_PLACEMENT_3D ( 'NONE', #101, #11, #138 ) ;
#79 = CARTESIAN_POINT ( 'NONE',  ( 0.000000000000000000, 0.000000000000000000, 165.0000000000000000 ) ) ;
#80 = ORGANIZATION ( 'NEURÈENÝ', 'NEURÈENÝ', '' ) ;
#81 = PLANE ( 'NONE',  #192 ) ;
#82 = DIRECTION ( 'NONE',  ( 1.000000000000000000, 0.000000000000000000, -0.000000000000000000 ) ) ;
#83 = CARTESIAN_POINT ( 'NONE',  ( -3.100000000000000089, 0.000000000000000000, 165.0000000000000000 ) ) ;
#84 = DATE_AND_TIME ( #126, #60 ) ;
#85 = COORDINATED_UNIVERSAL_TIME_OFFSET ( 1, 0, .AHEAD. ) ;
#86 = ADVANCED_FACE ( 'NONE', ( #47 ), #30, .T. ) ;
#87 = APPROVAL_DATE_TIME ( #149, #233 ) ;
#88 =( NAMED_UNIT ( * ) PLANE_ANGLE_UNIT ( ) SI_UNIT ( $, .RADIAN. ) );
#89 = APPLICATION_PROTOCOL_DEFINITION ( 'international standard', 'config_control_design', 1994, #244 ) ;
#90 = PRODUCT ( 'd4d9', 'd4d9', '', ( #108 ) ) ;
#91 = ORIENTED_EDGE ( 'NONE', *, *, #75, .T. ) ;
#92 = ORIENTED_EDGE ( 'NONE', *, *, #166, .F. ) ;
#93 = CC_DESIGN_DATE_AND_TIME_ASSIGNMENT ( #107, #203, ( #207 ) ) ;
#94 = CARTESIAN_POINT ( 'NONE',  ( 3.100000000000000089, 3.796405077356794918E-16, 165.0000000000000000 ) ) ;
#95 = AXIS2_PLACEMENT_3D ( 'NONE', #175, #153, #55 ) ;
#96 = EDGE_LOOP ( 'NONE', ( #52, #211 ) ) ;
#97 = VECTOR ( 'NONE', #8, 1000.000000000000000 ) ;
#98 = DIRECTION ( 'NONE',  ( 0.000000000000000000, 0.000000000000000000, 1.000000000000000000 ) ) ;
#99 = DIRECTION ( 'NONE',  ( 0.000000000000000000, 0.000000000000000000, 1.000000000000000000 ) ) ;
#100 = DIRECTION ( 'NONE',  ( 1.000000000000000000, 0.000000000000000000, 0.000000000000000000 ) ) ;
#101 = CARTESIAN_POINT ( 'NONE',  ( 0.000000000000000000, 0.000000000000000000, 165.0000000000000000 ) ) ;
#102 = PRODUCT_RELATED_PRODUCT_CATEGORY ( 'detail', '', ( #90 ) ) ;
#103 = PLANE ( 'NONE',  #161 ) ;
#104 = LOCAL_TIME ( 19, 39, 33.00000000000000000, #249 ) ;
#105 = DIRECTION ( 'NONE',  ( 0.000000000000000000, 0.000000000000000000, 1.000000000000000000 ) ) ;
#106 = CALENDAR_DATE ( 2022, 7, 7 ) ;
#107 = DATE_AND_TIME ( #170, #104 ) ;
#108 = MECHANICAL_CONTEXT ( 'NONE', #230, 'mechanical' ) ;
#109 = PERSON_AND_ORGANIZATION ( #74, #80 ) ;
#110 = DIRECTION ( 'NONE',  ( 1.000000000000000000, 0.000000000000000000, 0.000000000000000000 ) ) ;
#111 = AXIS2_PLACEMENT_3D ( 'NONE', #220, #34, #121 ) ;
#112 = DIRECTION ( 'NONE',  ( 1.000000000000000000, 0.000000000000000000, 0.000000000000000000 ) ) ;
#113 = AXIS2_PLACEMENT_3D ( 'NONE', #125, #218, #6 ) ;
#114 = EDGE_LOOP ( 'NONE', ( #131, #239, #91, #193 ) ) ;
#115 = AXIS2_PLACEMENT_3D ( 'NONE', #228, #206, #110 ) ;
#116 = CIRCLE ( 'NONE', #9, 6.000000000000000888 ) ;
#117 = FACE_BOUND ( 'NONE', #96, .T. ) ;
#118 = CARTESIAN_POINT ( 'NONE',  ( 0.000000000000000000, 0.000000000000000000, 5.000000000000000000 ) ) ;
#119 = DIRECTION ( 'NONE',  ( -0.000000000000000000, -0.000000000000000000, -1.000000000000000000 ) ) ;
#120 = EDGE_CURVE ( 'NONE', #73, #238, #150, .T. ) ;
#121 = DIRECTION ( 'NONE',  ( -1.000000000000000000, 0.000000000000000000, 0.000000000000000000 ) ) ;
#122 = CYLINDRICAL_SURFACE ( 'NONE', #243, 6.000000000000000888 ) ;
#123 = DESIGN_CONTEXT ( 'detailed design', #244, 'design' ) ;
#124 = FACE_OUTER_BOUND ( 'NONE', #236, .T. ) ;
#125 = CARTESIAN_POINT ( 'NONE',  ( 0.000000000000000000, 0.000000000000000000, 5.000000000000000000 ) ) ;
#126 = CALENDAR_DATE ( 2022, 7, 7 ) ;
#127 = PERSON_AND_ORGANIZATION_ROLE ( 'design_supplier' ) ;
#128 = PERSON_AND_ORGANIZATION_ROLE ( 'classification_officer' ) ;
#129 = SHAPE_DEFINITION_REPRESENTATION ( #45, #212 ) ;
#130 = EDGE_CURVE ( 'NONE', #72, #178, #116, .T. ) ;
#131 = ORIENTED_EDGE ( 'NONE', *, *, #69, .F. ) ;
#132 = APPROVAL_PERSON_ORGANIZATION ( #224, #148, #16 ) ;
#133 = CIRCLE ( 'NONE', #255, 3.100000000000000089 ) ;
#134 = ORIENTED_EDGE ( 'NONE', *, *, #120, .T. ) ;
#135 = CARTESIAN_POINT ( 'NONE',  ( 0.000000000000000000, 0.000000000000000000, 165.0000000000000000 ) ) ;
#136 = EDGE_CURVE ( 'NONE', #238, #73, #183, .T. ) ;
#137 = EDGE_LOOP ( 'NONE', ( #190, #234 ) ) ;
#138 = DIRECTION ( 'NONE',  ( 1.000000000000000000, 0.000000000000000000, -0.000000000000000000 ) ) ;
#139 = CARTESIAN_POINT ( 'NONE',  ( -6.000000000000000888, 0.000000000000000000, 0.000000000000000000 ) ) ;
#140 = CYLINDRICAL_SURFACE ( 'NONE', #3, 3.100000000000000089 ) ;
#141 = DIRECTION ( 'NONE',  ( -0.000000000000000000, -0.000000000000000000, -1.000000000000000000 ) ) ;
#142 = FACE_OUTER_BOUND ( 'NONE', #39, .T. ) ;
#143 = PERSON_AND_ORGANIZATION_ROLE ( 'creator' ) ;
#144 = DIRECTION ( 'NONE',  ( -0.000000000000000000, -0.000000000000000000, -1.000000000000000000 ) ) ;
#145 = PERSON_AND_ORGANIZATION ( #74, #80 ) ;
#146 = MANIFOLD_SOLID_BREP ( 'Pøidat vysunutím3', #23 ) ;
#147 = PERSON_AND_ORGANIZATION ( #74, #80 ) ;
#148 = APPROVAL ( #188, 'NEURÈENÝ' ) ;
#149 = DATE_AND_TIME ( #225, #42 ) ;
#150 = CIRCLE ( 'NONE', #113, 6.000000000000000888 ) ;
#151 = VERTEX_POINT ( 'NONE', #83 ) ;
#152 = ORIENTED_EDGE ( 'NONE', *, *, #204, .F. ) ;
#153 = DIRECTION ( 'NONE',  ( -0.000000000000000000, -0.000000000000000000, -1.000000000000000000 ) ) ;
#154 = ORIENTED_EDGE ( 'NONE', *, *, #69, .T. ) ;
#155 = CC_DESIGN_PERSON_AND_ORGANIZATION_ASSIGNMENT ( #247, #68, ( #207 ) ) ;
#156 = CARTESIAN_POINT ( 'NONE',  ( 6.000000000000000888, 7.347880794884120722E-16, 0.000000000000000000 ) ) ;
#157 = CC_DESIGN_PERSON_AND_ORGANIZATION_ASSIGNMENT ( #109, #127, ( #33 ) ) ;
#158 = CARTESIAN_POINT ( 'NONE',  ( 0.000000000000000000, 0.000000000000000000, 5.000000000000000000 ) ) ;
#159 = DIRECTION ( 'NONE',  ( -0.000000000000000000, -0.000000000000000000, -1.000000000000000000 ) ) ;
#160 = CARTESIAN_POINT ( 'NONE',  ( 0.000000000000000000, 0.000000000000000000, 0.000000000000000000 ) ) ;
#161 = AXIS2_PLACEMENT_3D ( 'NONE', #160, #27, #82 ) ;
#162 = LINE ( 'NONE', #242, #97 ) ;
#163 = CARTESIAN_POINT ( 'NONE',  ( 6.000000000000000888, 7.347880794884120722E-16, 5.000000000000000000 ) ) ;
#164 = LINE ( 'NONE', #163, #58 ) ;
#165 = APPROVAL_ROLE ( '' ) ;
#166 = EDGE_CURVE ( 'NONE', #20, #56, #248, .T. ) ;
#167 = SECURITY_CLASSIFICATION ( '', '', #48 ) ;
#168 = APPROVAL_ROLE ( '' ) ;
#169 = APPLICATION_PROTOCOL_DEFINITION ( 'international standard', 'config_control_design', 1994, #230 ) ;
#170 = CALENDAR_DATE ( 2022, 7, 7 ) ;
#171 =( LENGTH_UNIT ( ) NAMED_UNIT ( * ) SI_UNIT ( .MILLI., .METRE. ) );
#172 = CC_DESIGN_APPROVAL ( #148, ( #33 ) ) ;
#173 = EDGE_LOOP ( 'NONE', ( #134, #1 ) ) ;
#174 = CC_DESIGN_DATE_AND_TIME_ASSIGNMENT ( #49, #50, ( #167 ) ) ;
#175 = CARTESIAN_POINT ( 'NONE',  ( 0.000000000000000000, 0.000000000000000000, 5.000000000000000000 ) ) ;
#176 = ORIENTED_EDGE ( 'NONE', *, *, #66, .T. ) ;
#177 = AXIS2_PLACEMENT_3D ( 'NONE', #135, #213, #112 ) ;
#178 = VERTEX_POINT ( 'NONE', #156 ) ;
#179 = FACE_OUTER_BOUND ( 'NONE', #173, .T. ) ;
#180 = AXIS2_PLACEMENT_3D ( 'NONE', #118, #98, #215 ) ;
#181 = EDGE_CURVE ( 'NONE', #56, #237, #214, .T. ) ;
#182 = DIRECTION ( 'NONE',  ( 0.000000000000000000, 0.000000000000000000, 1.000000000000000000 ) ) ;
#183 = CIRCLE ( 'NONE', #4, 6.000000000000000888 ) ;
#184 = DIRECTION ( 'NONE',  ( 1.000000000000000000, 0.000000000000000000, 0.000000000000000000 ) ) ;
#185 = APPROVAL_DATE_TIME ( #37, #148 ) ;
#186 = APPROVAL_STATUS ( 'not_yet_approved' ) ;
#187 = AXIS2_PLACEMENT_3D ( 'NONE', #222, #182, #100 ) ;
#188 = APPROVAL_STATUS ( 'not_yet_approved' ) ;
#189 = ORIENTED_EDGE ( 'NONE', *, *, #166, .T. ) ;
#190 = ORIENTED_EDGE ( 'NONE', *, *, #130, .F. ) ;
#191 = APPROVAL ( #232, 'NEURÈENÝ' ) ;
#192 = AXIS2_PLACEMENT_3D ( 'NONE', #245, #201, #44 ) ;
#193 = ORIENTED_EDGE ( 'NONE', *, *, #130, .T. ) ;
#194 = AXIS2_PLACEMENT_3D ( 'NONE', #219, #10, #59 ) ;
#195 = CC_DESIGN_SECURITY_CLASSIFICATION ( #167, ( #33 ) ) ;
#196 = ADVANCED_FACE ( 'NONE', ( #117, #179 ), #81, .T. ) ;
#197 = LINE ( 'NONE', #64, #231 ) ;
#198 = DIRECTION ( 'NONE',  ( -1.000000000000000000, 0.000000000000000000, 0.000000000000000000 ) ) ;
#199 = DIRECTION ( 'NONE',  ( -1.000000000000000000, 0.000000000000000000, 0.000000000000000000 ) ) ;
#200 = APPROVAL_PERSON_ORGANIZATION ( #65, #233, #168 ) ;
#201 = DIRECTION ( 'NONE',  ( 0.000000000000000000, 0.000000000000000000, 1.000000000000000000 ) ) ;
#202 = DIRECTION ( 'NONE',  ( 1.000000000000000000, 0.000000000000000000, 0.000000000000000000 ) ) ;
#203 = DATE_TIME_ROLE ( 'creation_date' ) ;
#204 = EDGE_CURVE ( 'NONE', #151, #237, #162, .T. ) ;
#205 = COORDINATED_UNIVERSAL_TIME_OFFSET ( 1, 0, .AHEAD. ) ;
#206 = DIRECTION ( 'NONE',  ( 0.000000000000000000, 0.000000000000000000, 1.000000000000000000 ) ) ;
#207 = PRODUCT_DEFINITION ( 'NEZNÁMÝ', '', #33, #123 ) ;
#208 = ORIENTED_EDGE ( 'NONE', *, *, #136, .F. ) ;
#209 = CIRCLE ( 'NONE', #187, 6.000000000000000888 ) ;
#210 = ORIENTED_EDGE ( 'NONE', *, *, #181, .T. ) ;
#211 = ORIENTED_EDGE ( 'NONE', *, *, #181, .F. ) ;
#212 = ADVANCED_BREP_SHAPE_REPRESENTATION ( 'd4d9', ( #146, #115 ), #22 ) ;
#213 = DIRECTION ( 'NONE',  ( 0.000000000000000000, 0.000000000000000000, 1.000000000000000000 ) ) ;
#214 = CIRCLE ( 'NONE', #180, 3.100000000000000089 ) ;
#215 = DIRECTION ( 'NONE',  ( 1.000000000000000000, 0.000000000000000000, 0.000000000000000000 ) ) ;
#216 = EDGE_CURVE ( 'NONE', #237, #56, #133, .T. ) ;
#217 = ADVANCED_FACE ( 'NONE', ( #142 ), #31, .T. ) ;
#218 = DIRECTION ( 'NONE',  ( 0.000000000000000000, 0.000000000000000000, 1.000000000000000000 ) ) ;
#219 = CARTESIAN_POINT ( 'NONE',  ( 0.000000000000000000, 0.000000000000000000, 165.0000000000000000 ) ) ;
#220 = CARTESIAN_POINT ( 'NONE',  ( 0.000000000000000000, 0.000000000000000000, 165.0000000000000000 ) ) ;
#221 = CARTESIAN_POINT ( 'NONE',  ( 0.000000000000000000, 0.000000000000000000, 0.000000000000000000 ) ) ;
#222 = CARTESIAN_POINT ( 'NONE',  ( 0.000000000000000000, 0.000000000000000000, 0.000000000000000000 ) ) ;
#223 = DIRECTION ( 'NONE',  ( -0.000000000000000000, -0.000000000000000000, -1.000000000000000000 ) ) ;
#224 = PERSON_AND_ORGANIZATION ( #74, #80 ) ;
#225 = CALENDAR_DATE ( 2022, 7, 7 ) ;
#226 = EDGE_CURVE ( 'NONE', #178, #72, #209, .T. ) ;
#227 = COORDINATED_UNIVERSAL_TIME_OFFSET ( 1, 0, .AHEAD. ) ;
#228 = CARTESIAN_POINT ( 'NONE',  ( 0.000000000000000000, 0.000000000000000000, 0.000000000000000000 ) ) ;
#229 = CC_DESIGN_APPROVAL ( #233, ( #167 ) ) ;
#230 = APPLICATION_CONTEXT ( 'configuration controlled 3d designs of mechanical parts and assemblies' ) ;
#231 = VECTOR ( 'NONE', #223, 1000.000000000000000 ) ;
#232 = APPROVAL_STATUS ( 'not_yet_approved' ) ;
#233 = APPROVAL ( #186, 'NEURÈENÝ' ) ;
#234 = ORIENTED_EDGE ( 'NONE', *, *, #226, .F. ) ;
#235 = ORIENTED_EDGE ( 'NONE', *, *, #216, .T. ) ;
#236 = EDGE_LOOP ( 'NONE', ( #21, #189, #210, #152 ) ) ;
#237 = VERTEX_POINT ( 'NONE', #46 ) ;
#238 = VERTEX_POINT ( 'NONE', #29 ) ;
#239 = ORIENTED_EDGE ( 'NONE', *, *, #120, .F. ) ;
#240 = CARTESIAN_POINT ( 'NONE',  ( 3.100000000000000089, 3.796405077356794918E-16, 5.000000000000000000 ) ) ;
#241 = CC_DESIGN_PERSON_AND_ORGANIZATION_ASSIGNMENT ( #147, #38, ( #90 ) ) ;
#242 = CARTESIAN_POINT ( 'NONE',  ( -3.100000000000000089, 0.000000000000000000, 165.0000000000000000 ) ) ;
#243 = AXIS2_PLACEMENT_3D ( 'NONE', #158, #119, #199 ) ;
#244 = APPLICATION_CONTEXT ( 'configuration controlled 3d designs of mechanical parts and assemblies' ) ;
#245 = CARTESIAN_POINT ( 'NONE',  ( 0.000000000000000000, 0.000000000000000000, 5.000000000000000000 ) ) ;
#246 = CARTESIAN_POINT ( 'NONE',  ( -6.000000000000000888, 0.000000000000000000, 5.000000000000000000 ) ) ;
#247 = PERSON_AND_ORGANIZATION ( #74, #80 ) ;
#248 = LINE ( 'NONE', #67, #40 ) ;
#249 = COORDINATED_UNIVERSAL_TIME_OFFSET ( 1, 0, .AHEAD. ) ;
#250 = CALENDAR_DATE ( 2022, 7, 7 ) ;
#251 = CC_DESIGN_PERSON_AND_ORGANIZATION_ASSIGNMENT ( #12, #128, ( #167 ) ) ;
#252 = CYLINDRICAL_SURFACE ( 'NONE', #95, 6.000000000000000888 ) ;
#253 = ADVANCED_FACE ( 'NONE', ( #124 ), #140, .T. ) ;
#254 = ORIENTED_EDGE ( 'NONE', *, *, #13, .F. ) ;
#255 = AXIS2_PLACEMENT_3D ( 'NONE', #61, #63, #5 ) ;
ENDSEC;
END-ISO-10303-21;
