ISO-10303-21;
HEADER;
FILE_DESCRIPTION (( 'STEP AP203' ),
    '1' );
FILE_NAME ('c32e.STEP',
    '2023-02-13T09:46:16',
    ( '' ),
    ( '' ),
    'SwSTEP 2.0',
    'SolidWorks 2019',
    '' );
FILE_SCHEMA (( 'CONFIG_CONTROL_DESIGN' ));
ENDSEC;

DATA;
#1 = DESIGN_CONTEXT ( 'detailed design', #210, 'design' ) ;
#2 = LOCAL_TIME ( 10, 46, 16.00000000000000000, #74 ) ;
#3 = PERSON_AND_ORGANIZATION ( #92, #73 ) ;
#4 = CARTESIAN_POINT ( 'NONE',  ( 0.000000000000000000, 0.000000000000000000, 400.0000000000000000 ) ) ;
#5 = DIRECTION ( 'NONE',  ( -0.000000000000000000, -0.000000000000000000, -1.000000000000000000 ) ) ;
#6 = DIRECTION ( 'NONE',  ( 1.000000000000000000, 0.000000000000000000, 0.000000000000000000 ) ) ;
#7 = AXIS2_PLACEMENT_3D ( 'NONE', #163, #80, #148 ) ;
#8 = EDGE_CURVE ( 'NONE', #84, #203, #58, .T. ) ;
#9 = APPROVAL_ROLE ( '' ) ;
#10 = PRODUCT ( 'c32e', 'c32e', '', ( #173 ) ) ;
#11 = DIRECTION ( 'NONE',  ( -0.000000000000000000, -0.000000000000000000, -1.000000000000000000 ) ) ;
#12 = EDGE_CURVE ( 'NONE', #81, #84, #13, .T. ) ;
#13 = CIRCLE ( 'NONE', #7, 11.00000000000000000 ) ;
#14 = DIRECTION ( 'NONE',  ( 0.000000000000000000, 0.000000000000000000, 1.000000000000000000 ) ) ;
#15 = AXIS2_PLACEMENT_3D ( 'NONE', #104, #140, #91 ) ;
#16 = DIRECTION ( 'NONE',  ( -0.000000000000000000, -0.000000000000000000, -1.000000000000000000 ) ) ;
#17 = ORIENTED_EDGE ( 'NONE', *, *, #61, .T. ) ;
#18 = DIRECTION ( 'NONE',  ( 0.000000000000000000, 0.000000000000000000, 1.000000000000000000 ) ) ;
#19 = EDGE_LOOP ( 'NONE', ( #78, #40 ) ) ;
#20 = CYLINDRICAL_SURFACE ( 'NONE', #53, 11.00000000000000000 ) ;
#21 = ORIENTED_EDGE ( 'NONE', *, *, #77, .T. ) ;
#22 = CC_DESIGN_PERSON_AND_ORGANIZATION_ASSIGNMENT ( #160, #222, ( #180 ) ) ;
#23 = DIRECTION ( 'NONE',  ( 0.000000000000000000, 0.000000000000000000, 1.000000000000000000 ) ) ;
#24 = LOCAL_TIME ( 10, 46, 16.00000000000000000, #66 ) ;
#25 = DIRECTION ( 'NONE',  ( -1.000000000000000000, 0.000000000000000000, 0.000000000000000000 ) ) ;
#26 = FACE_OUTER_BOUND ( 'NONE', #128, .T. ) ;
#27 = AXIS2_PLACEMENT_3D ( 'NONE', #114, #18, #246 ) ;
#28 = APPLICATION_PROTOCOL_DEFINITION ( 'international standard', 'config_control_design', 1994, #181 ) ;
#29 = DATE_AND_TIME ( #176, #168 ) ;
#30 = CC_DESIGN_PERSON_AND_ORGANIZATION_ASSIGNMENT ( #237, #69, ( #10 ) ) ;
#31 = CC_DESIGN_SECURITY_CLASSIFICATION ( #180, ( #89 ) ) ;
#32 = CIRCLE ( 'NONE', #236, 11.00000000000000000 ) ;
#33 = CARTESIAN_POINT ( 'NONE',  ( -11.00000000000000000, 0.000000000000000000, 7.000000000000000000 ) ) ;
#34 = SECURITY_CLASSIFICATION_LEVEL ( 'unclassified' ) ;
#35 = CC_DESIGN_APPROVAL ( #151, ( #89 ) ) ;
#36 = AXIS2_PLACEMENT_3D ( 'NONE', #159, #242, #149 ) ;
#37 = FACE_OUTER_BOUND ( 'NONE', #249, .T. ) ;
#38 = CIRCLE ( 'NONE', #111, 8.000000000000000000 ) ;
#39 = CARTESIAN_POINT ( 'NONE',  ( -11.00000000000000000, 0.000000000000000000, 7.000000000000000000 ) ) ;
#40 = ORIENTED_EDGE ( 'NONE', *, *, #90, .F. ) ;
#41 = ORIENTED_EDGE ( 'NONE', *, *, #127, .T. ) ;
#42 = EDGE_CURVE ( 'NONE', #112, #251, #156, .T. ) ;
#43 = APPROVAL_ROLE ( '' ) ;
#44 = VERTEX_POINT ( 'NONE', #103 ) ;
#45 = DATE_AND_TIME ( #135, #24 ) ;
#46 = VECTOR ( 'NONE', #171, 1000.000000000000000 ) ;
#47 = CARTESIAN_POINT ( 'NONE',  ( 0.000000000000000000, 0.000000000000000000, 400.0000000000000000 ) ) ;
#48 = DIRECTION ( 'NONE',  ( 0.000000000000000000, 0.000000000000000000, 1.000000000000000000 ) ) ;
#49 = FACE_OUTER_BOUND ( 'NONE', #133, .T. ) ;
#50 = DIRECTION ( 'NONE',  ( 0.000000000000000000, 0.000000000000000000, 1.000000000000000000 ) ) ;
#51 = PERSON_AND_ORGANIZATION_ROLE ( 'creator' ) ;
#52 = PRODUCT_RELATED_PRODUCT_CATEGORY ( 'detail', '', ( #10 ) ) ;
#53 = AXIS2_PLACEMENT_3D ( 'NONE', #250, #83, #152 ) ;
#54 = PRODUCT_DEFINITION_SHAPE ( 'NONE', 'NONE',  #234 ) ;
#55 = APPROVAL_DATE_TIME ( #72, #175 ) ;
#56 = ADVANCED_BREP_SHAPE_REPRESENTATION ( 'c32e', ( #146, #178 ), #193 ) ;
#57 = DIRECTION ( 'NONE',  ( 1.000000000000000000, 0.000000000000000000, -0.000000000000000000 ) ) ;
#58 = LINE ( 'NONE', #39, #158 ) ;
#59 = ADVANCED_FACE ( 'NONE', ( #49 ), #174, .T. ) ;
#60 = ORIENTED_EDGE ( 'NONE', *, *, #119, .F. ) ;
#61 = EDGE_CURVE ( 'NONE', #203, #101, #230, .T. ) ;
#62 = FACE_BOUND ( 'NONE', #19, .T. ) ;
#63 = LOCAL_TIME ( 10, 46, 16.00000000000000000, #199 ) ;
#64 = ORIENTED_EDGE ( 'NONE', *, *, #157, .T. ) ;
#65 = ORIENTED_EDGE ( 'NONE', *, *, #252, .F. ) ;
#66 = COORDINATED_UNIVERSAL_TIME_OFFSET ( 1, 0, .AHEAD. ) ;
#67 = PLANE ( 'NONE',  #15 ) ;
#68 = CLOSED_SHELL ( 'NONE', ( #59, #134, #144, #108, #124, #238, #202 ) ) ;
#69 = PERSON_AND_ORGANIZATION_ROLE ( 'design_owner' ) ;
#70 = DIRECTION ( 'NONE',  ( -1.000000000000000000, 0.000000000000000000, 0.000000000000000000 ) ) ;
#71 = CC_DESIGN_PERSON_AND_ORGANIZATION_ASSIGNMENT ( #197, #51, ( #89 ) ) ;
#72 = DATE_AND_TIME ( #243, #2 ) ;
#73 = ORGANIZATION ( 'NEURÈENÝ', 'NEURÈENÝ', '' ) ;
#74 = COORDINATED_UNIVERSAL_TIME_OFFSET ( 1, 0, .AHEAD. ) ;
#75 = DIRECTION ( 'NONE',  ( 1.000000000000000000, 0.000000000000000000, 0.000000000000000000 ) ) ;
#76 = CARTESIAN_POINT ( 'NONE',  ( 0.000000000000000000, 0.000000000000000000, 7.000000000000000000 ) ) ;
#77 = EDGE_CURVE ( 'NONE', #130, #44, #179, .T. ) ;
#78 = ORIENTED_EDGE ( 'NONE', *, *, #127, .F. ) ;
#79 = CARTESIAN_POINT ( 'NONE',  ( -8.000000000000000000, 0.000000000000000000, 400.0000000000000000 ) ) ;
#80 = DIRECTION ( 'NONE',  ( 0.000000000000000000, 0.000000000000000000, 1.000000000000000000 ) ) ;
#81 = VERTEX_POINT ( 'NONE', #145 ) ;
#82 = ORIENTED_EDGE ( 'NONE', *, *, #42, .F. ) ;
#83 = DIRECTION ( 'NONE',  ( -0.000000000000000000, -0.000000000000000000, -1.000000000000000000 ) ) ;
#84 = VERTEX_POINT ( 'NONE', #33 ) ;
#85 = VECTOR ( 'NONE', #155, 1000.000000000000000 ) ;
#86 = DIRECTION ( 'NONE',  ( -1.000000000000000000, 0.000000000000000000, 0.000000000000000000 ) ) ;
#87 = DIRECTION ( 'NONE',  ( -0.000000000000000000, -0.000000000000000000, -1.000000000000000000 ) ) ;
#88 = APPROVAL_DATE_TIME ( #216, #218 ) ;
#89 = PRODUCT_DEFINITION_FORMATION_WITH_SPECIFIED_SOURCE ( 'LIBOVOLNÝ', '', #10, .NOT_KNOWN. ) ;
#90 = EDGE_CURVE ( 'NONE', #251, #44, #198, .T. ) ;
#91 = DIRECTION ( 'NONE',  ( 1.000000000000000000, 0.000000000000000000, -0.000000000000000000 ) ) ;
#92 = PERSON ( 'NEURÈENÝ', 'NEURÈENÝ', 'NEURÈENÝ', ('NEURÈENÝ'), ('NEURÈENÝ'), ('NEURÈENÝ') ) ;
#93 = APPROVAL_DATE_TIME ( #29, #151 ) ;
#94 = APPROVAL_STATUS ( 'not_yet_approved' ) ;
#95 = APPROVAL_PERSON_ORGANIZATION ( #192, #151, #195 ) ;
#96 = EDGE_CURVE ( 'NONE', #130, #112, #207, .T. ) ;
#97 = APPROVAL_STATUS ( 'not_yet_approved' ) ;
#98 = DIRECTION ( 'NONE',  ( 1.000000000000000000, 0.000000000000000000, 0.000000000000000000 ) ) ;
#99 = ORIENTED_EDGE ( 'NONE', *, *, #61, .F. ) ;
#100 = PLANE ( 'NONE',  #27 ) ;
#101 = VERTEX_POINT ( 'NONE', #113 ) ;
#102 = COORDINATED_UNIVERSAL_TIME_OFFSET ( 1, 0, .AHEAD. ) ;
#103 = CARTESIAN_POINT ( 'NONE',  ( -8.000000000000000000, 0.000000000000000000, 7.000000000000000000 ) ) ;
#104 = CARTESIAN_POINT ( 'NONE',  ( 0.000000000000000000, 0.000000000000000000, 400.0000000000000000 ) ) ;
#105 = AXIS2_PLACEMENT_3D ( 'NONE', #224, #143, #6 ) ;
#106 = CYLINDRICAL_SURFACE ( 'NONE', #254, 8.000000000000000000 ) ;
#107 = CARTESIAN_POINT ( 'NONE',  ( -8.000000000000000000, 0.000000000000000000, 400.0000000000000000 ) ) ;
#108 = ADVANCED_FACE ( 'NONE', ( #62, #164 ), #208, .T. ) ;
#109 = APPROVAL_PERSON_ORGANIZATION ( #221, #175, #9 ) ;
#110 = FACE_OUTER_BOUND ( 'NONE', #209, .T. ) ;
#111 = AXIS2_PLACEMENT_3D ( 'NONE', #47, #50, #172 ) ;
#112 = VERTEX_POINT ( 'NONE', #115 ) ;
#113 = CARTESIAN_POINT ( 'NONE',  ( 11.00000000000000000, 1.347111479062088405E-15, 0.000000000000000000 ) ) ;
#114 = CARTESIAN_POINT ( 'NONE',  ( 0.000000000000000000, 0.000000000000000000, 0.000000000000000000 ) ) ;
#115 = CARTESIAN_POINT ( 'NONE',  ( 8.000000000000000000, 9.797174393178825657E-16, 400.0000000000000000 ) ) ;
#116 = APPROVAL_PERSON_ORGANIZATION ( #3, #218, #43 ) ;
#117 = ORIENTED_EDGE ( 'NONE', *, *, #96, .F. ) ;
#118 = ORIENTED_EDGE ( 'NONE', *, *, #12, .T. ) ;
#119 = EDGE_CURVE ( 'NONE', #101, #203, #32, .T. ) ;
#120 = DATE_TIME_ROLE ( 'creation_date' ) ;
#121 = CARTESIAN_POINT ( 'NONE',  ( 8.000000000000000000, 9.797174393178825657E-16, 400.0000000000000000 ) ) ;
#122 =( LENGTH_UNIT ( ) NAMED_UNIT ( * ) SI_UNIT ( .MILLI., .METRE. ) );
#123 = PERSON_AND_ORGANIZATION ( #92, #73 ) ;
#124 = ADVANCED_FACE ( 'NONE', ( #110 ), #100, .F. ) ;
#125 =( NAMED_UNIT ( * ) PLANE_ANGLE_UNIT ( ) SI_UNIT ( $, .RADIAN. ) );
#126 = AXIS2_PLACEMENT_3D ( 'NONE', #228, #205, #57 ) ;
#127 = EDGE_CURVE ( 'NONE', #44, #251, #187, .T. ) ;
#128 = EDGE_LOOP ( 'NONE', ( #232, #247 ) ) ;
#129 = CC_DESIGN_APPROVAL ( #218, ( #234 ) ) ;
#130 = VERTEX_POINT ( 'NONE', #79 ) ;
#131 = ORIENTED_EDGE ( 'NONE', *, *, #196, .T. ) ;
#132 = CARTESIAN_POINT ( 'NONE',  ( 0.000000000000000000, 0.000000000000000000, 0.000000000000000000 ) ) ;
#133 = EDGE_LOOP ( 'NONE', ( #65, #189, #162, #229 ) ) ;
#134 = ADVANCED_FACE ( 'NONE', ( #182 ), #20, .T. ) ;
#135 = CALENDAR_DATE ( 2023, 13, 2 ) ;
#136 = DIRECTION ( 'NONE',  ( -0.000000000000000000, -0.000000000000000000, -1.000000000000000000 ) ) ;
#137 = VECTOR ( 'NONE', #11, 1000.000000000000000 ) ;
#138 = APPLICATION_PROTOCOL_DEFINITION ( 'international standard', 'config_control_design', 1994, #210 ) ;
#139 = AXIS2_PLACEMENT_3D ( 'NONE', #235, #23, #255 ) ;
#140 = DIRECTION ( 'NONE',  ( 0.000000000000000000, 0.000000000000000000, 1.000000000000000000 ) ) ;
#141 = CC_DESIGN_APPROVAL ( #175, ( #180 ) ) ;
#142 = SHAPE_DEFINITION_REPRESENTATION ( #54, #56 ) ;
#143 = DIRECTION ( 'NONE',  ( 0.000000000000000000, 0.000000000000000000, 1.000000000000000000 ) ) ;
#144 = ADVANCED_FACE ( 'NONE', ( #37 ), #231, .T. ) ;
#145 = CARTESIAN_POINT ( 'NONE',  ( 11.00000000000000000, 1.347111479062088405E-15, 7.000000000000000000 ) ) ;
#146 = MANIFOLD_SOLID_BREP ( 'Pøidat vysunutím3', #68 ) ;
#147 = ORIENTED_EDGE ( 'NONE', *, *, #8, .F. ) ;
#148 = DIRECTION ( 'NONE',  ( 1.000000000000000000, 0.000000000000000000, 0.000000000000000000 ) ) ;
#149 = DIRECTION ( 'NONE',  ( 1.000000000000000000, 0.000000000000000000, 0.000000000000000000 ) ) ;
#150 = EDGE_LOOP ( 'NONE', ( #82, #117, #21, #41 ) ) ;
#151 = APPROVAL ( #97, 'NEURÈENÝ' ) ;
#152 = DIRECTION ( 'NONE',  ( -1.000000000000000000, 0.000000000000000000, 0.000000000000000000 ) ) ;
#153 = CARTESIAN_POINT ( 'NONE',  ( 11.00000000000000000, 1.347111479062088405E-15, 7.000000000000000000 ) ) ;
#154 = CALENDAR_DATE ( 2023, 13, 2 ) ;
#155 = DIRECTION ( 'NONE',  ( -0.000000000000000000, -0.000000000000000000, -1.000000000000000000 ) ) ;
#156 = LINE ( 'NONE', #121, #46 ) ;
#157 = EDGE_CURVE ( 'NONE', #81, #101, #239, .T. ) ;
#158 = VECTOR ( 'NONE', #16, 1000.000000000000000 ) ;
#159 = CARTESIAN_POINT ( 'NONE',  ( 0.000000000000000000, 0.000000000000000000, 400.0000000000000000 ) ) ;
#160 = PERSON_AND_ORGANIZATION ( #92, #73 ) ;
#161 = PERSON_AND_ORGANIZATION ( #92, #73 ) ;
#162 = ORIENTED_EDGE ( 'NONE', *, *, #90, .T. ) ;
#163 = CARTESIAN_POINT ( 'NONE',  ( 0.000000000000000000, 0.000000000000000000, 7.000000000000000000 ) ) ;
#164 = FACE_OUTER_BOUND ( 'NONE', #248, .T. ) ;
#165 = DIRECTION ( 'NONE',  ( 0.000000000000000000, 0.000000000000000000, 1.000000000000000000 ) ) ;
#166 = CC_DESIGN_PERSON_AND_ORGANIZATION_ASSIGNMENT ( #123, #253, ( #234 ) ) ;
#167 = DIRECTION ( 'NONE',  ( 1.000000000000000000, 0.000000000000000000, 0.000000000000000000 ) ) ;
#168 = LOCAL_TIME ( 10, 46, 16.00000000000000000, #200 ) ;
#169 = AXIS2_PLACEMENT_3D ( 'NONE', #76, #165, #167 ) ;
#170 = CARTESIAN_POINT ( 'NONE',  ( -11.00000000000000000, 0.000000000000000000, 0.000000000000000000 ) ) ;
#171 = DIRECTION ( 'NONE',  ( -0.000000000000000000, -0.000000000000000000, -1.000000000000000000 ) ) ;
#172 = DIRECTION ( 'NONE',  ( 1.000000000000000000, 0.000000000000000000, 0.000000000000000000 ) ) ;
#173 = MECHANICAL_CONTEXT ( 'NONE', #181, 'mechanical' ) ;
#174 = CYLINDRICAL_SURFACE ( 'NONE', #213, 8.000000000000000000 ) ;
#175 = APPROVAL ( #94, 'NEURÈENÝ' ) ;
#176 = CALENDAR_DATE ( 2023, 13, 2 ) ;
#177 = DATE_AND_TIME ( #219, #63 ) ;
#178 = AXIS2_PLACEMENT_3D ( 'NONE', #132, #48, #211 ) ;
#179 = LINE ( 'NONE', #107, #137 ) ;
#180 = SECURITY_CLASSIFICATION ( '', '', #34 ) ;
#181 = APPLICATION_CONTEXT ( 'configuration controlled 3d designs of mechanical parts and assemblies' ) ;
#182 = FACE_OUTER_BOUND ( 'NONE', #227, .T. ) ;
#183 = AXIS2_PLACEMENT_3D ( 'NONE', #201, #87, #70 ) ;
#184 = CC_DESIGN_PERSON_AND_ORGANIZATION_ASSIGNMENT ( #161, #241, ( #89 ) ) ;
#185 = ORIENTED_EDGE ( 'NONE', *, *, #119, .T. ) ;
#186 = ORIENTED_EDGE ( 'NONE', *, *, #196, .F. ) ;
#187 = CIRCLE ( 'NONE', #169, 8.000000000000000000 ) ;
#188 = CARTESIAN_POINT ( 'NONE',  ( 0.000000000000000000, 0.000000000000000000, 0.000000000000000000 ) ) ;
#189 = ORIENTED_EDGE ( 'NONE', *, *, #42, .T. ) ;
#190 = APPROVAL_STATUS ( 'not_yet_approved' ) ;
#191 = UNCERTAINTY_MEASURE_WITH_UNIT (LENGTH_MEASURE( 1.000000000000000082E-05 ), #122, 'distance_accuracy_value', 'NONE');
#192 = PERSON_AND_ORGANIZATION ( #92, #73 ) ;
#193 =( GEOMETRIC_REPRESENTATION_CONTEXT ( 3 ) GLOBAL_UNCERTAINTY_ASSIGNED_CONTEXT ( ( #191 ) ) GLOBAL_UNIT_ASSIGNED_CONTEXT ( ( #122, #125, #233 ) ) REPRESENTATION_CONTEXT ( 'NONE', 'WORKASPACE' ) );
#194 = CARTESIAN_POINT ( 'NONE',  ( 0.000000000000000000, 0.000000000000000000, 400.0000000000000000 ) ) ;
#195 = APPROVAL_ROLE ( '' ) ;
#196 = EDGE_CURVE ( 'NONE', #84, #81, #220, .T. ) ;
#197 = PERSON_AND_ORGANIZATION ( #92, #73 ) ;
#198 = CIRCLE ( 'NONE', #105, 8.000000000000000000 ) ;
#199 = COORDINATED_UNIVERSAL_TIME_OFFSET ( 1, 0, .AHEAD. ) ;
#200 = COORDINATED_UNIVERSAL_TIME_OFFSET ( 1, 0, .AHEAD. ) ;
#201 = CARTESIAN_POINT ( 'NONE',  ( 0.000000000000000000, 0.000000000000000000, 7.000000000000000000 ) ) ;
#202 = ADVANCED_FACE ( 'NONE', ( #26 ), #67, .T. ) ;
#203 = VERTEX_POINT ( 'NONE', #170 ) ;
#204 = LOCAL_TIME ( 10, 46, 16.00000000000000000, #102 ) ;
#205 = DIRECTION ( 'NONE',  ( 0.000000000000000000, 0.000000000000000000, 1.000000000000000000 ) ) ;
#206 = ORIENTED_EDGE ( 'NONE', *, *, #157, .F. ) ;
#207 = CIRCLE ( 'NONE', #36, 8.000000000000000000 ) ;
#208 = PLANE ( 'NONE',  #126 ) ;
#209 = EDGE_LOOP ( 'NONE', ( #99, #60 ) ) ;
#210 = APPLICATION_CONTEXT ( 'configuration controlled 3d designs of mechanical parts and assemblies' ) ;
#211 = DIRECTION ( 'NONE',  ( 1.000000000000000000, 0.000000000000000000, 0.000000000000000000 ) ) ;
#212 = ORIENTED_EDGE ( 'NONE', *, *, #8, .T. ) ;
#213 = AXIS2_PLACEMENT_3D ( 'NONE', #4, #5, #25 ) ;
#214 = CARTESIAN_POINT ( 'NONE',  ( 8.000000000000000000, 9.797174393178825657E-16, 7.000000000000000000 ) ) ;
#215 = CARTESIAN_POINT ( 'NONE',  ( 0.000000000000000000, 0.000000000000000000, 0.000000000000000000 ) ) ;
#216 = DATE_AND_TIME ( #154, #204 ) ;
#217 = FACE_OUTER_BOUND ( 'NONE', #150, .T. ) ;
#218 = APPROVAL ( #190, 'NEURÈENÝ' ) ;
#219 = CALENDAR_DATE ( 2023, 13, 2 ) ;
#220 = CIRCLE ( 'NONE', #139, 11.00000000000000000 ) ;
#221 = PERSON_AND_ORGANIZATION ( #92, #73 ) ;
#222 = PERSON_AND_ORGANIZATION_ROLE ( 'classification_officer' ) ;
#223 = AXIS2_PLACEMENT_3D ( 'NONE', #215, #240, #75 ) ;
#224 = CARTESIAN_POINT ( 'NONE',  ( 0.000000000000000000, 0.000000000000000000, 7.000000000000000000 ) ) ;
#225 = CC_DESIGN_DATE_AND_TIME_ASSIGNMENT ( #177, #244, ( #180 ) ) ;
#226 = ORIENTED_EDGE ( 'NONE', *, *, #12, .F. ) ;
#227 = EDGE_LOOP ( 'NONE', ( #226, #64, #185, #147 ) ) ;
#228 = CARTESIAN_POINT ( 'NONE',  ( 0.000000000000000000, 0.000000000000000000, 7.000000000000000000 ) ) ;
#229 = ORIENTED_EDGE ( 'NONE', *, *, #77, .F. ) ;
#230 = CIRCLE ( 'NONE', #223, 11.00000000000000000 ) ;
#231 = CYLINDRICAL_SURFACE ( 'NONE', #183, 11.00000000000000000 ) ;
#232 = ORIENTED_EDGE ( 'NONE', *, *, #96, .T. ) ;
#233 =( NAMED_UNIT ( * ) SI_UNIT ( $, .STERADIAN. ) SOLID_ANGLE_UNIT ( ) );
#234 = PRODUCT_DEFINITION ( 'NEZNÁMÝ', '', #89, #1 ) ;
#235 = CARTESIAN_POINT ( 'NONE',  ( 0.000000000000000000, 0.000000000000000000, 7.000000000000000000 ) ) ;
#236 = AXIS2_PLACEMENT_3D ( 'NONE', #188, #14, #98 ) ;
#237 = PERSON_AND_ORGANIZATION ( #92, #73 ) ;
#238 = ADVANCED_FACE ( 'NONE', ( #217 ), #106, .T. ) ;
#239 = LINE ( 'NONE', #153, #85 ) ;
#240 = DIRECTION ( 'NONE',  ( 0.000000000000000000, 0.000000000000000000, 1.000000000000000000 ) ) ;
#241 = PERSON_AND_ORGANIZATION_ROLE ( 'design_supplier' ) ;
#242 = DIRECTION ( 'NONE',  ( 0.000000000000000000, 0.000000000000000000, 1.000000000000000000 ) ) ;
#243 = CALENDAR_DATE ( 2023, 13, 2 ) ;
#244 = DATE_TIME_ROLE ( 'classification_date' ) ;
#245 = CC_DESIGN_DATE_AND_TIME_ASSIGNMENT ( #45, #120, ( #234 ) ) ;
#246 = DIRECTION ( 'NONE',  ( 1.000000000000000000, 0.000000000000000000, -0.000000000000000000 ) ) ;
#247 = ORIENTED_EDGE ( 'NONE', *, *, #252, .T. ) ;
#248 = EDGE_LOOP ( 'NONE', ( #131, #118 ) ) ;
#249 = EDGE_LOOP ( 'NONE', ( #206, #186, #212, #17 ) ) ;
#250 = CARTESIAN_POINT ( 'NONE',  ( 0.000000000000000000, 0.000000000000000000, 7.000000000000000000 ) ) ;
#251 = VERTEX_POINT ( 'NONE', #214 ) ;
#252 = EDGE_CURVE ( 'NONE', #112, #130, #38, .T. ) ;
#253 = PERSON_AND_ORGANIZATION_ROLE ( 'creator' ) ;
#254 = AXIS2_PLACEMENT_3D ( 'NONE', #194, #136, #86 ) ;
#255 = DIRECTION ( 'NONE',  ( 1.000000000000000000, 0.000000000000000000, 0.000000000000000000 ) ) ;
ENDSEC;
END-ISO-10303-21;
