ISO-10303-21;
HEADER;
FILE_DESCRIPTION (( 'STEP AP203' ),
    '1' );
FILE_NAME ('f40f.STEP',
    '2022-07-07T17:05:24',
    ( '' ),
    ( '' ),
    'SwSTEP 2.0',
    'SolidWorks 2019',
    '' );
FILE_SCHEMA (( 'CONFIG_CONTROL_DESIGN' ));
ENDSEC;

DATA;
#1 = CC_DESIGN_PERSON_AND_ORGANIZATION_ASSIGNMENT ( #253, #215, ( #163 ) ) ;
#2 = DIRECTION ( 'NONE',  ( -0.000000000000000000, -0.000000000000000000, -1.000000000000000000 ) ) ;
#3 = CARTESIAN_POINT ( 'NONE',  ( 12.00000000000000178, 1.469576158976824144E-15, 7.000000000000000000 ) ) ;
#4 = ORIENTED_EDGE ( 'NONE', *, *, #129, .F. ) ;
#5 = DIRECTION ( 'NONE',  ( 1.000000000000000000, 0.000000000000000000, 0.000000000000000000 ) ) ;
#6 = DIRECTION ( 'NONE',  ( 0.000000000000000000, 0.000000000000000000, 1.000000000000000000 ) ) ;
#7 = AXIS2_PLACEMENT_3D ( 'NONE', #220, #53, #51 ) ;
#8 = ORIENTED_EDGE ( 'NONE', *, *, #50, .F. ) ;
#9 = VECTOR ( 'NONE', #135, 1000.000000000000000 ) ;
#10 = CYLINDRICAL_SURFACE ( 'NONE', #158, 9.000000000000001776 ) ;
#11 = EDGE_CURVE ( 'NONE', #136, #74, #200, .T. ) ;
#12 = CARTESIAN_POINT ( 'NONE',  ( -12.00000000000000178, 0.000000000000000000, 0.000000000000000000 ) ) ;
#13 = CARTESIAN_POINT ( 'NONE',  ( 0.000000000000000000, 0.000000000000000000, 7.000000000000000000 ) ) ;
#14 = VERTEX_POINT ( 'NONE', #149 ) ;
#15 = FACE_OUTER_BOUND ( 'NONE', #33, .T. ) ;
#16 = AXIS2_PLACEMENT_3D ( 'NONE', #186, #77, #5 ) ;
#17 = PRODUCT_DEFINITION_FORMATION_WITH_SPECIFIED_SOURCE ( 'LIBOVOLNÝ', '', #246, .NOT_KNOWN. ) ;
#18 = PRODUCT_RELATED_PRODUCT_CATEGORY ( 'detail', '', ( #246 ) ) ;
#19 = DATE_AND_TIME ( #198, #166 ) ;
#20 = AXIS2_PLACEMENT_3D ( 'NONE', #13, #110, #225 ) ;
#21 = APPROVAL_ROLE ( '' ) ;
#22 = PERSON_AND_ORGANIZATION ( #41, #145 ) ;
#23 = DATE_AND_TIME ( #103, #218 ) ;
#24 = EDGE_CURVE ( 'NONE', #48, #14, #176, .T. ) ;
#25 = AXIS2_PLACEMENT_3D ( 'NONE', #151, #155, #54 ) ;
#26 = DIRECTION ( 'NONE',  ( 1.000000000000000000, 0.000000000000000000, 0.000000000000000000 ) ) ;
#27 = DIRECTION ( 'NONE',  ( 1.000000000000000000, 0.000000000000000000, 0.000000000000000000 ) ) ;
#28 = DIRECTION ( 'NONE',  ( -1.000000000000000000, 0.000000000000000000, 0.000000000000000000 ) ) ;
#29 = CARTESIAN_POINT ( 'NONE',  ( 0.000000000000000000, 0.000000000000000000, 167.0000000000000000 ) ) ;
#30 =( NAMED_UNIT ( * ) PLANE_ANGLE_UNIT ( ) SI_UNIT ( $, .RADIAN. ) );
#31 = AXIS2_PLACEMENT_3D ( 'NONE', #175, #36, #118 ) ;
#32 = ORIENTED_EDGE ( 'NONE', *, *, #178, .T. ) ;
#33 = EDGE_LOOP ( 'NONE', ( #191, #43 ) ) ;
#34 = DIRECTION ( 'NONE',  ( -0.000000000000000000, -0.000000000000000000, -1.000000000000000000 ) ) ;
#35 = ORIENTED_EDGE ( 'NONE', *, *, #50, .T. ) ;
#36 = DIRECTION ( 'NONE',  ( 0.000000000000000000, 0.000000000000000000, 1.000000000000000000 ) ) ;
#37 = ADVANCED_FACE ( 'NONE', ( #108 ), #75, .F. ) ;
#38 = EDGE_LOOP ( 'NONE', ( #127, #8 ) ) ;
#39 = CALENDAR_DATE ( 2022, 7, 7 ) ;
#40 = APPROVAL_PERSON_ORGANIZATION ( #199, #146, #105 ) ;
#41 = PERSON ( 'NEURÈENÝ', 'NEURÈENÝ', 'NEURÈENÝ', ('NEURÈENÝ'), ('NEURÈENÝ'), ('NEURÈENÝ') ) ;
#42 = APPROVAL_DATE_TIME ( #19, #89 ) ;
#43 = ORIENTED_EDGE ( 'NONE', *, *, #227, .T. ) ;
#44 = AXIS2_PLACEMENT_3D ( 'NONE', #170, #2, #224 ) ;
#45 = LOCAL_TIME ( 19, 5, 24.00000000000000000, #85 ) ;
#46 = VERTEX_POINT ( 'NONE', #12 ) ;
#47 = AXIS2_PLACEMENT_3D ( 'NONE', #217, #130, #26 ) ;
#48 = VERTEX_POINT ( 'NONE', #70 ) ;
#49 = DIRECTION ( 'NONE',  ( -0.000000000000000000, -0.000000000000000000, -1.000000000000000000 ) ) ;
#50 = EDGE_CURVE ( 'NONE', #211, #46, #142, .T. ) ;
#51 = DIRECTION ( 'NONE',  ( 1.000000000000000000, 0.000000000000000000, 0.000000000000000000 ) ) ;
#52 = DIRECTION ( 'NONE',  ( 1.000000000000000000, 0.000000000000000000, -0.000000000000000000 ) ) ;
#53 = DIRECTION ( 'NONE',  ( 0.000000000000000000, 0.000000000000000000, 1.000000000000000000 ) ) ;
#54 = DIRECTION ( 'NONE',  ( 1.000000000000000000, 0.000000000000000000, 0.000000000000000000 ) ) ;
#55 = VERTEX_POINT ( 'NONE', #168 ) ;
#56 = LINE ( 'NONE', #239, #101 ) ;
#57 = CARTESIAN_POINT ( 'NONE',  ( -12.00000000000000178, 0.000000000000000000, 7.000000000000000000 ) ) ;
#58 = ORIENTED_EDGE ( 'NONE', *, *, #79, .T. ) ;
#59 = ORIENTED_EDGE ( 'NONE', *, *, #69, .F. ) ;
#60 = PERSON_AND_ORGANIZATION_ROLE ( 'creator' ) ;
#61 = CALENDAR_DATE ( 2022, 7, 7 ) ;
#62 = ORIENTED_EDGE ( 'NONE', *, *, #107, .F. ) ;
#63 = AXIS2_PLACEMENT_3D ( 'NONE', #156, #241, #90 ) ;
#64 = CC_DESIGN_SECURITY_CLASSIFICATION ( #163, ( #17 ) ) ;
#65 = APPROVAL_DATE_TIME ( #161, #213 ) ;
#66 = PERSON_AND_ORGANIZATION ( #41, #145 ) ;
#67 = ORIENTED_EDGE ( 'NONE', *, *, #195, .F. ) ;
#68 = CIRCLE ( 'NONE', #47, 9.000000000000001776 ) ;
#69 = EDGE_CURVE ( 'NONE', #74, #136, #128, .T. ) ;
#70 = CARTESIAN_POINT ( 'NONE',  ( 9.000000000000001776, 1.102182119232617911E-15, 167.0000000000000000 ) ) ;
#71 = DIRECTION ( 'NONE',  ( 0.000000000000000000, 0.000000000000000000, 1.000000000000000000 ) ) ;
#72 = DIRECTION ( 'NONE',  ( 0.000000000000000000, 0.000000000000000000, 1.000000000000000000 ) ) ;
#73 = LINE ( 'NONE', #57, #228 ) ;
#74 = VERTEX_POINT ( 'NONE', #243 ) ;
#75 = PLANE ( 'NONE',  #63 ) ;
#76 = DIRECTION ( 'NONE',  ( 1.000000000000000000, 0.000000000000000000, 0.000000000000000000 ) ) ;
#77 = DIRECTION ( 'NONE',  ( 0.000000000000000000, 0.000000000000000000, 1.000000000000000000 ) ) ;
#78 = DIRECTION ( 'NONE',  ( 0.000000000000000000, 0.000000000000000000, 1.000000000000000000 ) ) ;
#79 = EDGE_CURVE ( 'NONE', #46, #211, #233, .T. ) ;
#80 = VERTEX_POINT ( 'NONE', #91 ) ;
#81 = ADVANCED_FACE ( 'NONE', ( #109 ), #204, .T. ) ;
#82 = UNCERTAINTY_MEASURE_WITH_UNIT (LENGTH_MEASURE( 1.000000000000000082E-05 ), #208, 'distance_accuracy_value', 'NONE');
#83 = CC_DESIGN_APPROVAL ( #213, ( #17 ) ) ;
#84 = CALENDAR_DATE ( 2022, 7, 7 ) ;
#85 = COORDINATED_UNIVERSAL_TIME_OFFSET ( 1, 0, .AHEAD. ) ;
#86 = DATE_AND_TIME ( #39, #106 ) ;
#87 = VECTOR ( 'NONE', #133, 1000.000000000000000 ) ;
#88 = COORDINATED_UNIVERSAL_TIME_OFFSET ( 1, 0, .AHEAD. ) ;
#89 = APPROVAL ( #235, 'NEURÈENÝ' ) ;
#90 = DIRECTION ( 'NONE',  ( 1.000000000000000000, 0.000000000000000000, -0.000000000000000000 ) ) ;
#91 = CARTESIAN_POINT ( 'NONE',  ( -12.00000000000000178, 0.000000000000000000, 7.000000000000000000 ) ) ;
#92 = FACE_BOUND ( 'NONE', #97, .T. ) ;
#93 = AXIS2_PLACEMENT_3D ( 'NONE', #29, #71, #113 ) ;
#94 = ORIENTED_EDGE ( 'NONE', *, *, #226, .T. ) ;
#95 = CARTESIAN_POINT ( 'NONE',  ( 0.000000000000000000, 0.000000000000000000, 167.0000000000000000 ) ) ;
#96 = ORIENTED_EDGE ( 'NONE', *, *, #227, .F. ) ;
#97 = EDGE_LOOP ( 'NONE', ( #102, #59 ) ) ;
#98 =( NAMED_UNIT ( * ) SI_UNIT ( $, .STERADIAN. ) SOLID_ANGLE_UNIT ( ) );
#99 = MANIFOLD_SOLID_BREP ( 'Pøidat vysunutím3', #131 ) ;
#100 = PRODUCT_DEFINITION_SHAPE ( 'NONE', 'NONE',  #138 ) ;
#101 = VECTOR ( 'NONE', #111, 1000.000000000000000 ) ;
#102 = ORIENTED_EDGE ( 'NONE', *, *, #11, .F. ) ;
#103 = CALENDAR_DATE ( 2022, 7, 7 ) ;
#104 = DATE_AND_TIME ( #84, #157 ) ;
#105 = APPROVAL_ROLE ( '' ) ;
#106 = LOCAL_TIME ( 19, 5, 24.00000000000000000, #148 ) ;
#107 = EDGE_CURVE ( 'NONE', #48, #74, #56, .T. ) ;
#108 = FACE_OUTER_BOUND ( 'NONE', #38, .T. ) ;
#109 = FACE_OUTER_BOUND ( 'NONE', #254, .T. ) ;
#110 = DIRECTION ( 'NONE',  ( -0.000000000000000000, -0.000000000000000000, -1.000000000000000000 ) ) ;
#111 = DIRECTION ( 'NONE',  ( -0.000000000000000000, -0.000000000000000000, -1.000000000000000000 ) ) ;
#112 = LINE ( 'NONE', #3, #9 ) ;
#113 = DIRECTION ( 'NONE',  ( 1.000000000000000000, 0.000000000000000000, 0.000000000000000000 ) ) ;
#114 = CARTESIAN_POINT ( 'NONE',  ( 0.000000000000000000, 0.000000000000000000, 7.000000000000000000 ) ) ;
#115 = ADVANCED_FACE ( 'NONE', ( #188 ), #10, .T. ) ;
#116 = EDGE_LOOP ( 'NONE', ( #62, #4, #32, #174 ) ) ;
#117 = ORIENTED_EDGE ( 'NONE', *, *, #249, .F. ) ;
#118 = DIRECTION ( 'NONE',  ( 1.000000000000000000, 0.000000000000000000, 0.000000000000000000 ) ) ;
#119 = CIRCLE ( 'NONE', #31, 12.00000000000000178 ) ;
#120 = CC_DESIGN_APPROVAL ( #146, ( #163 ) ) ;
#121 = ORIENTED_EDGE ( 'NONE', *, *, #24, .T. ) ;
#122 = CIRCLE ( 'NONE', #139, 12.00000000000000178 ) ;
#123 = CC_DESIGN_PERSON_AND_ORGANIZATION_ASSIGNMENT ( #22, #144, ( #17 ) ) ;
#124 = PERSON_AND_ORGANIZATION ( #41, #145 ) ;
#125 = ORIENTED_EDGE ( 'NONE', *, *, #178, .F. ) ;
#126 = COORDINATED_UNIVERSAL_TIME_OFFSET ( 1, 0, .AHEAD. ) ;
#127 = ORIENTED_EDGE ( 'NONE', *, *, #79, .F. ) ;
#128 = CIRCLE ( 'NONE', #7, 9.000000000000001776 ) ;
#129 = EDGE_CURVE ( 'NONE', #14, #48, #68, .T. ) ;
#130 = DIRECTION ( 'NONE',  ( 0.000000000000000000, 0.000000000000000000, 1.000000000000000000 ) ) ;
#131 = CLOSED_SHELL ( 'NONE', ( #81, #214, #216, #242, #37, #115, #141 ) ) ;
#132 = AXIS2_PLACEMENT_3D ( 'NONE', #114, #34, #28 ) ;
#133 = DIRECTION ( 'NONE',  ( -0.000000000000000000, -0.000000000000000000, -1.000000000000000000 ) ) ;
#134 = CARTESIAN_POINT ( 'NONE',  ( 0.000000000000000000, 0.000000000000000000, 0.000000000000000000 ) ) ;
#135 = DIRECTION ( 'NONE',  ( -0.000000000000000000, -0.000000000000000000, -1.000000000000000000 ) ) ;
#136 = VERTEX_POINT ( 'NONE', #184 ) ;
#137 = MECHANICAL_CONTEXT ( 'NONE', #236, 'mechanical' ) ;
#138 = PRODUCT_DEFINITION ( 'NEZNÁMÝ', '', #17, #229 ) ;
#139 = AXIS2_PLACEMENT_3D ( 'NONE', #187, #6, #76 ) ;
#140 = ORIENTED_EDGE ( 'NONE', *, *, #249, .T. ) ;
#141 = ADVANCED_FACE ( 'NONE', ( #154 ), #237, .T. ) ;
#142 = CIRCLE ( 'NONE', #203, 12.00000000000000178 ) ;
#143 = PERSON_AND_ORGANIZATION ( #41, #145 ) ;
#144 = PERSON_AND_ORGANIZATION_ROLE ( 'creator' ) ;
#145 = ORGANIZATION ( 'NEURÈENÝ', 'NEURÈENÝ', '' ) ;
#146 = APPROVAL ( #147, 'NEURÈENÝ' ) ;
#147 = APPROVAL_STATUS ( 'not_yet_approved' ) ;
#148 = COORDINATED_UNIVERSAL_TIME_OFFSET ( 1, 0, .AHEAD. ) ;
#149 = CARTESIAN_POINT ( 'NONE',  ( -9.000000000000001776, 0.000000000000000000, 167.0000000000000000 ) ) ;
#150 = ORIENTED_EDGE ( 'NONE', *, *, #24, .F. ) ;
#151 = CARTESIAN_POINT ( 'NONE',  ( 0.000000000000000000, 0.000000000000000000, 0.000000000000000000 ) ) ;
#152 = DIRECTION ( 'NONE',  ( 1.000000000000000000, 0.000000000000000000, 0.000000000000000000 ) ) ;
#153 = FACE_OUTER_BOUND ( 'NONE', #247, .T. ) ;
#154 = FACE_OUTER_BOUND ( 'NONE', #185, .T. ) ;
#155 = DIRECTION ( 'NONE',  ( 0.000000000000000000, 0.000000000000000000, 1.000000000000000000 ) ) ;
#156 = CARTESIAN_POINT ( 'NONE',  ( 0.000000000000000000, 0.000000000000000000, 0.000000000000000000 ) ) ;
#157 = LOCAL_TIME ( 19, 5, 24.00000000000000000, #248 ) ;
#158 = AXIS2_PLACEMENT_3D ( 'NONE', #95, #209, #172 ) ;
#159 = CC_DESIGN_APPROVAL ( #89, ( #138 ) ) ;
#160 = CC_DESIGN_DATE_AND_TIME_ASSIGNMENT ( #23, #231, ( #138 ) ) ;
#161 = DATE_AND_TIME ( #61, #45 ) ;
#162 = PERSON_AND_ORGANIZATION_ROLE ( 'design_supplier' ) ;
#163 = SECURITY_CLASSIFICATION ( '', '', #197 ) ;
#164 = APPROVAL_DATE_TIME ( #104, #146 ) ;
#165 = PERSON_AND_ORGANIZATION ( #41, #145 ) ;
#166 = LOCAL_TIME ( 19, 5, 24.00000000000000000, #126 ) ;
#167 = CC_DESIGN_PERSON_AND_ORGANIZATION_ASSIGNMENT ( #251, #182, ( #246 ) ) ;
#168 = CARTESIAN_POINT ( 'NONE',  ( 12.00000000000000178, 1.469576158976824144E-15, 7.000000000000000000 ) ) ;
#169 = PLANE ( 'NONE',  #177 ) ;
#170 = CARTESIAN_POINT ( 'NONE',  ( 0.000000000000000000, 0.000000000000000000, 167.0000000000000000 ) ) ;
#171 = CARTESIAN_POINT ( 'NONE',  ( -9.000000000000001776, 0.000000000000000000, 167.0000000000000000 ) ) ;
#172 = DIRECTION ( 'NONE',  ( -1.000000000000000000, 0.000000000000000000, 0.000000000000000000 ) ) ;
#173 = ORIENTED_EDGE ( 'NONE', *, *, #129, .T. ) ;
#174 = ORIENTED_EDGE ( 'NONE', *, *, #11, .T. ) ;
#175 = CARTESIAN_POINT ( 'NONE',  ( 0.000000000000000000, 0.000000000000000000, 7.000000000000000000 ) ) ;
#176 = CIRCLE ( 'NONE', #93, 9.000000000000001776 ) ;
#177 = AXIS2_PLACEMENT_3D ( 'NONE', #240, #78, #52 ) ;
#178 = EDGE_CURVE ( 'NONE', #14, #136, #210, .T. ) ;
#179 = DATE_TIME_ROLE ( 'classification_date' ) ;
#180 = APPROVAL_ROLE ( '' ) ;
#181 = APPROVAL_STATUS ( 'not_yet_approved' ) ;
#182 = PERSON_AND_ORGANIZATION_ROLE ( 'design_owner' ) ;
#183 = APPLICATION_CONTEXT ( 'configuration controlled 3d designs of mechanical parts and assemblies' ) ;
#184 = CARTESIAN_POINT ( 'NONE',  ( -9.000000000000001776, 0.000000000000000000, 7.000000000000000000 ) ) ;
#185 = EDGE_LOOP ( 'NONE', ( #173, #121 ) ) ;
#186 = CARTESIAN_POINT ( 'NONE',  ( 0.000000000000000000, 0.000000000000000000, 7.000000000000000000 ) ) ;
#187 = CARTESIAN_POINT ( 'NONE',  ( 0.000000000000000000, 0.000000000000000000, 7.000000000000000000 ) ) ;
#188 = FACE_OUTER_BOUND ( 'NONE', #116, .T. ) ;
#189 = AXIS2_PLACEMENT_3D ( 'NONE', #134, #207, #27 ) ;
#190 = APPROVAL_PERSON_ORGANIZATION ( #66, #213, #180 ) ;
#191 = ORIENTED_EDGE ( 'NONE', *, *, #195, .T. ) ;
#192 = CYLINDRICAL_SURFACE ( 'NONE', #20, 12.00000000000000178 ) ;
#193 = FACE_OUTER_BOUND ( 'NONE', #222, .T. ) ;
#194 = ORIENTED_EDGE ( 'NONE', *, *, #226, .F. ) ;
#195 = EDGE_CURVE ( 'NONE', #80, #55, #119, .T. ) ;
#196 = ORIENTED_EDGE ( 'NONE', *, *, #69, .T. ) ;
#197 = SECURITY_CLASSIFICATION_LEVEL ( 'unclassified' ) ;
#198 = CALENDAR_DATE ( 2022, 7, 7 ) ;
#199 = PERSON_AND_ORGANIZATION ( #41, #145 ) ;
#200 = CIRCLE ( 'NONE', #16, 9.000000000000001776 ) ;
#201 = CC_DESIGN_PERSON_AND_ORGANIZATION_ASSIGNMENT ( #143, #60, ( #138 ) ) ;
#202 = ORIENTED_EDGE ( 'NONE', *, *, #107, .T. ) ;
#203 = AXIS2_PLACEMENT_3D ( 'NONE', #205, #72, #152 ) ;
#204 = CYLINDRICAL_SURFACE ( 'NONE', #44, 9.000000000000001776 ) ;
#205 = CARTESIAN_POINT ( 'NONE',  ( 0.000000000000000000, 0.000000000000000000, 0.000000000000000000 ) ) ;
#206 = CYLINDRICAL_SURFACE ( 'NONE', #132, 12.00000000000000178 ) ;
#207 = DIRECTION ( 'NONE',  ( 0.000000000000000000, 0.000000000000000000, 1.000000000000000000 ) ) ;
#208 =( LENGTH_UNIT ( ) NAMED_UNIT ( * ) SI_UNIT ( .MILLI., .METRE. ) );
#209 = DIRECTION ( 'NONE',  ( -0.000000000000000000, -0.000000000000000000, -1.000000000000000000 ) ) ;
#210 = LINE ( 'NONE', #171, #87 ) ;
#211 = VERTEX_POINT ( 'NONE', #212 ) ;
#212 = CARTESIAN_POINT ( 'NONE',  ( 12.00000000000000178, 1.469576158976824144E-15, 0.000000000000000000 ) ) ;
#213 = APPROVAL ( #181, 'NEURÈENÝ' ) ;
#214 = ADVANCED_FACE ( 'NONE', ( #153 ), #206, .T. ) ;
#215 = PERSON_AND_ORGANIZATION_ROLE ( 'classification_officer' ) ;
#216 = ADVANCED_FACE ( 'NONE', ( #193 ), #192, .T. ) ;
#217 = CARTESIAN_POINT ( 'NONE',  ( 0.000000000000000000, 0.000000000000000000, 167.0000000000000000 ) ) ;
#218 = LOCAL_TIME ( 19, 5, 24.00000000000000000, #88 ) ;
#219 = CARTESIAN_POINT ( 'NONE',  ( 0.000000000000000000, 0.000000000000000000, 167.0000000000000000 ) ) ;
#220 = CARTESIAN_POINT ( 'NONE',  ( 0.000000000000000000, 0.000000000000000000, 7.000000000000000000 ) ) ;
#221 = DIRECTION ( 'NONE',  ( 1.000000000000000000, 0.000000000000000000, -0.000000000000000000 ) ) ;
#222 = EDGE_LOOP ( 'NONE', ( #194, #67, #140, #58 ) ) ;
#223 = APPLICATION_PROTOCOL_DEFINITION ( 'international standard', 'config_control_design', 1994, #236 ) ;
#224 = DIRECTION ( 'NONE',  ( -1.000000000000000000, 0.000000000000000000, 0.000000000000000000 ) ) ;
#225 = DIRECTION ( 'NONE',  ( -1.000000000000000000, 0.000000000000000000, 0.000000000000000000 ) ) ;
#226 = EDGE_CURVE ( 'NONE', #55, #211, #112, .T. ) ;
#227 = EDGE_CURVE ( 'NONE', #55, #80, #122, .T. ) ;
#228 = VECTOR ( 'NONE', #49, 1000.000000000000000 ) ;
#229 = DESIGN_CONTEXT ( 'detailed design', #183, 'design' ) ;
#230 = SHAPE_DEFINITION_REPRESENTATION ( #100, #245 ) ;
#231 = DATE_TIME_ROLE ( 'creation_date' ) ;
#232 = CC_DESIGN_PERSON_AND_ORGANIZATION_ASSIGNMENT ( #124, #162, ( #17 ) ) ;
#233 = CIRCLE ( 'NONE', #189, 12.00000000000000178 ) ;
#234 = CC_DESIGN_DATE_AND_TIME_ASSIGNMENT ( #86, #179, ( #163 ) ) ;
#235 = APPROVAL_STATUS ( 'not_yet_approved' ) ;
#236 = APPLICATION_CONTEXT ( 'configuration controlled 3d designs of mechanical parts and assemblies' ) ;
#237 = PLANE ( 'NONE',  #238 ) ;
#238 = AXIS2_PLACEMENT_3D ( 'NONE', #219, #244, #221 ) ;
#239 = CARTESIAN_POINT ( 'NONE',  ( 9.000000000000001776, 1.102182119232617911E-15, 167.0000000000000000 ) ) ;
#240 = CARTESIAN_POINT ( 'NONE',  ( 0.000000000000000000, 0.000000000000000000, 7.000000000000000000 ) ) ;
#241 = DIRECTION ( 'NONE',  ( 0.000000000000000000, 0.000000000000000000, 1.000000000000000000 ) ) ;
#242 = ADVANCED_FACE ( 'NONE', ( #92, #15 ), #169, .T. ) ;
#243 = CARTESIAN_POINT ( 'NONE',  ( 9.000000000000001776, 1.102182119232617911E-15, 7.000000000000000000 ) ) ;
#244 = DIRECTION ( 'NONE',  ( 0.000000000000000000, 0.000000000000000000, 1.000000000000000000 ) ) ;
#245 = ADVANCED_BREP_SHAPE_REPRESENTATION ( 'f40f', ( #99, #25 ), #255 ) ;
#246 = PRODUCT ( 'f40f', 'f40f', '', ( #137 ) ) ;
#247 = EDGE_LOOP ( 'NONE', ( #96, #94, #35, #117 ) ) ;
#248 = COORDINATED_UNIVERSAL_TIME_OFFSET ( 1, 0, .AHEAD. ) ;
#249 = EDGE_CURVE ( 'NONE', #80, #46, #73, .T. ) ;
#250 = APPLICATION_PROTOCOL_DEFINITION ( 'international standard', 'config_control_design', 1994, #183 ) ;
#251 = PERSON_AND_ORGANIZATION ( #41, #145 ) ;
#252 = APPROVAL_PERSON_ORGANIZATION ( #165, #89, #21 ) ;
#253 = PERSON_AND_ORGANIZATION ( #41, #145 ) ;
#254 = EDGE_LOOP ( 'NONE', ( #150, #202, #196, #125 ) ) ;
#255 =( GEOMETRIC_REPRESENTATION_CONTEXT ( 3 ) GLOBAL_UNCERTAINTY_ASSIGNED_CONTEXT ( ( #82 ) ) GLOBAL_UNIT_ASSIGNED_CONTEXT ( ( #208, #30, #98 ) ) REPRESENTATION_CONTEXT ( 'NONE', 'WORKASPACE' ) );
ENDSEC;
END-ISO-10303-21;
