ISO-10303-21;
HEADER;
FILE_DESCRIPTION (( 'STEP AP203' ),
    '1' );
FILE_NAME ('154c.STEP',
    '2022-07-07T17:50:43',
    ( '' ),
    ( '' ),
    'SwSTEP 2.0',
    'SolidWorks 2019',
    '' );
FILE_SCHEMA (( 'CONFIG_CONTROL_DESIGN' ));
ENDSEC;

DATA;
#1 = AXIS2_PLACEMENT_3D ( 'NONE', #145, #75, #181 ) ;
#2 = ORIENTED_EDGE ( 'NONE', *, *, #253, .T. ) ;
#3 = CIRCLE ( 'NONE', #104, 2.100000000000000089 ) ;
#4 = CARTESIAN_POINT ( 'NONE',  ( 0.000000000000000000, 0.000000000000000000, 128.0000000000000000 ) ) ;
#5 = CLOSED_SHELL ( 'NONE', ( #184, #43, #217, #26, #196, #105, #62 ) ) ;
#6 = ORIENTED_EDGE ( 'NONE', *, *, #154, .T. ) ;
#7 = PLANE ( 'NONE',  #158 ) ;
#8 = EDGE_LOOP ( 'NONE', ( #183, #242, #91, #86 ) ) ;
#9 = DIRECTION ( 'NONE',  ( 1.000000000000000000, 0.000000000000000000, 0.000000000000000000 ) ) ;
#10 = EDGE_LOOP ( 'NONE', ( #219, #45 ) ) ;
#11 = CC_DESIGN_PERSON_AND_ORGANIZATION_ASSIGNMENT ( #40, #80, ( #194 ) ) ;
#12 = CARTESIAN_POINT ( 'NONE',  ( 2.100000000000000089, 2.571758278209441957E-16, 128.0000000000000000 ) ) ;
#13 = FACE_OUTER_BOUND ( 'NONE', #151, .T. ) ;
#14 = DIRECTION ( 'NONE',  ( -0.000000000000000000, -0.000000000000000000, -1.000000000000000000 ) ) ;
#15 = EDGE_CURVE ( 'NONE', #63, #204, #214, .T. ) ;
#16 = CARTESIAN_POINT ( 'NONE',  ( 0.000000000000000000, 0.000000000000000000, 3.000000000000000000 ) ) ;
#17 = CIRCLE ( 'NONE', #35, 4.000000000000000000 ) ;
#18 = PERSON_AND_ORGANIZATION_ROLE ( 'classification_officer' ) ;
#19 = CALENDAR_DATE ( 2022, 7, 7 ) ;
#20 = LOCAL_TIME ( 19, 50, 43.00000000000000000, #82 ) ;
#21 = APPROVAL_DATE_TIME ( #83, #95 ) ;
#22 = PRODUCT_RELATED_PRODUCT_CATEGORY ( 'detail', '', ( #34 ) ) ;
#23 = VECTOR ( 'NONE', #96, 1000.000000000000000 ) ;
#24 = EDGE_CURVE ( 'NONE', #204, #106, #170, .T. ) ;
#25 = APPLICATION_PROTOCOL_DEFINITION ( 'international standard', 'config_control_design', 1994, #157 ) ;
#26 = ADVANCED_FACE ( 'NONE', ( #114, #98 ), #132, .T. ) ;
#27 = ORIENTED_EDGE ( 'NONE', *, *, #253, .F. ) ;
#28 = AXIS2_PLACEMENT_3D ( 'NONE', #222, #200, #246 ) ;
#29 = ORIENTED_EDGE ( 'NONE', *, *, #59, .F. ) ;
#30 = DIRECTION ( 'NONE',  ( 0.000000000000000000, 0.000000000000000000, 1.000000000000000000 ) ) ;
#31 = EDGE_LOOP ( 'NONE', ( #69, #110 ) ) ;
#32 = CARTESIAN_POINT ( 'NONE',  ( 0.000000000000000000, 0.000000000000000000, 0.000000000000000000 ) ) ;
#33 = DIRECTION ( 'NONE',  ( 0.000000000000000000, 0.000000000000000000, 1.000000000000000000 ) ) ;
#34 = PRODUCT ( '154c', '154c', '', ( #115 ) ) ;
#35 = AXIS2_PLACEMENT_3D ( 'NONE', #16, #99, #70 ) ;
#36 = FACE_OUTER_BOUND ( 'NONE', #10, .T. ) ;
#37 = EDGE_CURVE ( 'NONE', #63, #163, #74, .T. ) ;
#38 = PERSON_AND_ORGANIZATION_ROLE ( 'creator' ) ;
#39 = AXIS2_PLACEMENT_3D ( 'NONE', #32, #90, #112 ) ;
#40 = PERSON_AND_ORGANIZATION ( #103, #54 ) ;
#41 = PERSON_AND_ORGANIZATION ( #103, #54 ) ;
#42 = APPROVAL_PERSON_ORGANIZATION ( #189, #95, #212 ) ;
#43 = ADVANCED_FACE ( 'NONE', ( #71 ), #243, .T. ) ;
#44 = DIRECTION ( 'NONE',  ( 0.000000000000000000, 0.000000000000000000, 1.000000000000000000 ) ) ;
#45 = ORIENTED_EDGE ( 'NONE', *, *, #15, .T. ) ;
#46 =( NAMED_UNIT ( * ) SI_UNIT ( $, .STERADIAN. ) SOLID_ANGLE_UNIT ( ) );
#47 = PLANE ( 'NONE',  #221 ) ;
#48 =( LENGTH_UNIT ( ) NAMED_UNIT ( * ) SI_UNIT ( .MILLI., .METRE. ) );
#49 = DIRECTION ( 'NONE',  ( 0.000000000000000000, 0.000000000000000000, 1.000000000000000000 ) ) ;
#50 = CARTESIAN_POINT ( 'NONE',  ( 0.000000000000000000, 0.000000000000000000, 3.000000000000000000 ) ) ;
#51 = ADVANCED_BREP_SHAPE_REPRESENTATION ( '154c', ( #156, #39 ), #159 ) ;
#52 = CARTESIAN_POINT ( 'NONE',  ( -4.000000000000000000, 0.000000000000000000, 0.000000000000000000 ) ) ;
#53 = PRODUCT_DEFINITION_SHAPE ( 'NONE', 'NONE',  #85 ) ;
#54 = ORGANIZATION ( 'NEURÈENÝ', 'NEURÈENÝ', '' ) ;
#55 = COORDINATED_UNIVERSAL_TIME_OFFSET ( 1, 0, .AHEAD. ) ;
#56 = DATE_AND_TIME ( #57, #235 ) ;
#57 = CALENDAR_DATE ( 2022, 7, 7 ) ;
#58 = PERSON_AND_ORGANIZATION ( #103, #54 ) ;
#59 = EDGE_CURVE ( 'NONE', #201, #126, #205, .T. ) ;
#60 = DATE_AND_TIME ( #19, #175 ) ;
#61 = CC_DESIGN_APPROVAL ( #230, ( #85 ) ) ;
#62 = ADVANCED_FACE ( 'NONE', ( #36 ), #47, .T. ) ;
#63 = VERTEX_POINT ( 'NONE', #245 ) ;
#64 = CIRCLE ( 'NONE', #142, 4.000000000000000000 ) ;
#65 = PERSON_AND_ORGANIZATION_ROLE ( 'design_owner' ) ;
#66 = ORIENTED_EDGE ( 'NONE', *, *, #231, .F. ) ;
#67 = EDGE_CURVE ( 'NONE', #126, #89, #228, .T. ) ;
#68 = CYLINDRICAL_SURFACE ( 'NONE', #209, 4.000000000000000000 ) ;
#69 = ORIENTED_EDGE ( 'NONE', *, *, #119, .T. ) ;
#70 = DIRECTION ( 'NONE',  ( 1.000000000000000000, 0.000000000000000000, 0.000000000000000000 ) ) ;
#71 = FACE_OUTER_BOUND ( 'NONE', #128, .T. ) ;
#72 = DIRECTION ( 'NONE',  ( 1.000000000000000000, 0.000000000000000000, 0.000000000000000000 ) ) ;
#73 = ORIENTED_EDGE ( 'NONE', *, *, #81, .T. ) ;
#74 = LINE ( 'NONE', #12, #23 ) ;
#75 = DIRECTION ( 'NONE',  ( 0.000000000000000000, 0.000000000000000000, 1.000000000000000000 ) ) ;
#76 = DIRECTION ( 'NONE',  ( -0.000000000000000000, -0.000000000000000000, -1.000000000000000000 ) ) ;
#77 = DIRECTION ( 'NONE',  ( -0.000000000000000000, -0.000000000000000000, -1.000000000000000000 ) ) ;
#78 = AXIS2_PLACEMENT_3D ( 'NONE', #117, #150, #118 ) ;
#79 = SECURITY_CLASSIFICATION_LEVEL ( 'unclassified' ) ;
#80 = PERSON_AND_ORGANIZATION_ROLE ( 'design_supplier' ) ;
#81 = EDGE_CURVE ( 'NONE', #240, #89, #225, .T. ) ;
#82 = COORDINATED_UNIVERSAL_TIME_OFFSET ( 1, 0, .AHEAD. ) ;
#83 = DATE_AND_TIME ( #123, #255 ) ;
#84 = VECTOR ( 'NONE', #77, 1000.000000000000000 ) ;
#85 = PRODUCT_DEFINITION ( 'NEZNÁMÝ', '', #194, #141 ) ;
#86 = ORIENTED_EDGE ( 'NONE', *, *, #231, .T. ) ;
#87 = EDGE_LOOP ( 'NONE', ( #144, #236 ) ) ;
#88 = CARTESIAN_POINT ( 'NONE',  ( 0.000000000000000000, 0.000000000000000000, 3.000000000000000000 ) ) ;
#89 = VERTEX_POINT ( 'NONE', #52 ) ;
#90 = DIRECTION ( 'NONE',  ( 0.000000000000000000, 0.000000000000000000, 1.000000000000000000 ) ) ;
#91 = ORIENTED_EDGE ( 'NONE', *, *, #24, .T. ) ;
#92 = CARTESIAN_POINT ( 'NONE',  ( 0.000000000000000000, 0.000000000000000000, 128.0000000000000000 ) ) ;
#93 = CARTESIAN_POINT ( 'NONE',  ( -2.100000000000000089, 0.000000000000000000, 128.0000000000000000 ) ) ;
#94 = ORIENTED_EDGE ( 'NONE', *, *, #139, .F. ) ;
#95 = APPROVAL ( #102, 'NEURÈENÝ' ) ;
#96 = DIRECTION ( 'NONE',  ( -0.000000000000000000, -0.000000000000000000, -1.000000000000000000 ) ) ;
#97 = CARTESIAN_POINT ( 'NONE',  ( 0.000000000000000000, 0.000000000000000000, 3.000000000000000000 ) ) ;
#98 = FACE_OUTER_BOUND ( 'NONE', #31, .T. ) ;
#99 = DIRECTION ( 'NONE',  ( 0.000000000000000000, 0.000000000000000000, 1.000000000000000000 ) ) ;
#100 = LOCAL_TIME ( 19, 50, 43.00000000000000000, #55 ) ;
#101 = CC_DESIGN_PERSON_AND_ORGANIZATION_ASSIGNMENT ( #155, #18, ( #152 ) ) ;
#102 = APPROVAL_STATUS ( 'not_yet_approved' ) ;
#103 = PERSON ( 'NEURÈENÝ', 'NEURÈENÝ', 'NEURÈENÝ', ('NEURÈENÝ'), ('NEURÈENÝ'), ('NEURÈENÝ') ) ;
#104 = AXIS2_PLACEMENT_3D ( 'NONE', #88, #178, #72 ) ;
#105 = ADVANCED_FACE ( 'NONE', ( #186 ), #247, .T. ) ;
#106 = VERTEX_POINT ( 'NONE', #111 ) ;
#107 = PERSON_AND_ORGANIZATION ( #103, #54 ) ;
#108 = ORIENTED_EDGE ( 'NONE', *, *, #67, .T. ) ;
#109 = CIRCLE ( 'NONE', #28, 2.100000000000000089 ) ;
#110 = ORIENTED_EDGE ( 'NONE', *, *, #139, .T. ) ;
#111 = CARTESIAN_POINT ( 'NONE',  ( -2.100000000000000089, 0.000000000000000000, 3.000000000000000000 ) ) ;
#112 = DIRECTION ( 'NONE',  ( 1.000000000000000000, 0.000000000000000000, 0.000000000000000000 ) ) ;
#113 = EDGE_LOOP ( 'NONE', ( #29, #179, #73, #6 ) ) ;
#114 = FACE_BOUND ( 'NONE', #161, .T. ) ;
#115 = MECHANICAL_CONTEXT ( 'NONE', #208, 'mechanical' ) ;
#116 = VECTOR ( 'NONE', #210, 1000.000000000000000 ) ;
#117 = CARTESIAN_POINT ( 'NONE',  ( 0.000000000000000000, 0.000000000000000000, 0.000000000000000000 ) ) ;
#118 = DIRECTION ( 'NONE',  ( 1.000000000000000000, 0.000000000000000000, 0.000000000000000000 ) ) ;
#119 = EDGE_CURVE ( 'NONE', #240, #201, #17, .T. ) ;
#120 = COORDINATED_UNIVERSAL_TIME_OFFSET ( 1, 0, .AHEAD. ) ;
#121 = AXIS2_PLACEMENT_3D ( 'NONE', #4, #218, #148 ) ;
#122 = APPROVAL_ROLE ( '' ) ;
#123 = CALENDAR_DATE ( 2022, 7, 7 ) ;
#124 = AXIS2_PLACEMENT_3D ( 'NONE', #227, #162, #223 ) ;
#125 = ORIENTED_EDGE ( 'NONE', *, *, #24, .F. ) ;
#126 = VERTEX_POINT ( 'NONE', #248 ) ;
#127 = FACE_OUTER_BOUND ( 'NONE', #87, .T. ) ;
#128 = EDGE_LOOP ( 'NONE', ( #94, #146, #108, #176 ) ) ;
#129 = CIRCLE ( 'NONE', #174, 4.000000000000000000 ) ;
#130 = DIRECTION ( 'NONE',  ( 1.000000000000000000, 0.000000000000000000, 0.000000000000000000 ) ) ;
#131 = APPLICATION_PROTOCOL_DEFINITION ( 'international standard', 'config_control_design', 1994, #208 ) ;
#132 = PLANE ( 'NONE',  #137 ) ;
#133 = CARTESIAN_POINT ( 'NONE',  ( 4.000000000000000000, 4.898587196589412829E-16, 3.000000000000000000 ) ) ;
#134 = CIRCLE ( 'NONE', #1, 2.100000000000000089 ) ;
#135 = DIRECTION ( 'NONE',  ( 1.000000000000000000, 0.000000000000000000, -0.000000000000000000 ) ) ;
#136 = COORDINATED_UNIVERSAL_TIME_OFFSET ( 1, 0, .AHEAD. ) ;
#137 = AXIS2_PLACEMENT_3D ( 'NONE', #50, #49, #135 ) ;
#138 = DATE_AND_TIME ( #211, #100 ) ;
#139 = EDGE_CURVE ( 'NONE', #201, #240, #129, .T. ) ;
#140 = APPROVAL_ROLE ( '' ) ;
#141 = DESIGN_CONTEXT ( 'detailed design', #157, 'design' ) ;
#142 = AXIS2_PLACEMENT_3D ( 'NONE', #202, #30, #9 ) ;
#143 = DIRECTION ( 'NONE',  ( 1.000000000000000000, 0.000000000000000000, -0.000000000000000000 ) ) ;
#144 = ORIENTED_EDGE ( 'NONE', *, *, #154, .F. ) ;
#145 = CARTESIAN_POINT ( 'NONE',  ( 0.000000000000000000, 0.000000000000000000, 128.0000000000000000 ) ) ;
#146 = ORIENTED_EDGE ( 'NONE', *, *, #59, .T. ) ;
#147 = DIRECTION ( 'NONE',  ( 0.000000000000000000, 0.000000000000000000, 1.000000000000000000 ) ) ;
#148 = DIRECTION ( 'NONE',  ( -1.000000000000000000, 0.000000000000000000, 0.000000000000000000 ) ) ;
#149 = DIRECTION ( 'NONE',  ( 1.000000000000000000, 0.000000000000000000, 0.000000000000000000 ) ) ;
#150 = DIRECTION ( 'NONE',  ( 0.000000000000000000, 0.000000000000000000, 1.000000000000000000 ) ) ;
#151 = EDGE_LOOP ( 'NONE', ( #244, #182, #2, #125 ) ) ;
#152 = SECURITY_CLASSIFICATION ( '', '', #79 ) ;
#153 = CARTESIAN_POINT ( 'NONE',  ( 0.000000000000000000, 0.000000000000000000, 3.000000000000000000 ) ) ;
#154 = EDGE_CURVE ( 'NONE', #89, #126, #64, .T. ) ;
#155 = PERSON_AND_ORGANIZATION ( #103, #54 ) ;
#156 = MANIFOLD_SOLID_BREP ( 'Pøidat vysunutím3', #5 ) ;
#157 = APPLICATION_CONTEXT ( 'configuration controlled 3d designs of mechanical parts and assemblies' ) ;
#158 = AXIS2_PLACEMENT_3D ( 'NONE', #224, #44, #143 ) ;
#159 =( GEOMETRIC_REPRESENTATION_CONTEXT ( 3 ) GLOBAL_UNCERTAINTY_ASSIGNED_CONTEXT ( ( #191 ) ) GLOBAL_UNIT_ASSIGNED_CONTEXT ( ( #48, #166, #46 ) ) REPRESENTATION_CONTEXT ( 'NONE', 'WORKASPACE' ) );
#160 = CYLINDRICAL_SURFACE ( 'NONE', #121, 2.100000000000000089 ) ;
#161 = EDGE_LOOP ( 'NONE', ( #66, #27 ) ) ;
#162 = DIRECTION ( 'NONE',  ( -0.000000000000000000, -0.000000000000000000, -1.000000000000000000 ) ) ;
#163 = VERTEX_POINT ( 'NONE', #165 ) ;
#164 = CC_DESIGN_DATE_AND_TIME_ASSIGNMENT ( #56, #190, ( #152 ) ) ;
#165 = CARTESIAN_POINT ( 'NONE',  ( 2.100000000000000089, 2.571758278209441957E-16, 3.000000000000000000 ) ) ;
#166 =( NAMED_UNIT ( * ) PLANE_ANGLE_UNIT ( ) SI_UNIT ( $, .RADIAN. ) );
#167 = DIRECTION ( 'NONE',  ( 1.000000000000000000, 0.000000000000000000, -0.000000000000000000 ) ) ;
#168 = DIRECTION ( 'NONE',  ( -0.000000000000000000, -0.000000000000000000, -1.000000000000000000 ) ) ;
#169 = CARTESIAN_POINT ( 'NONE',  ( 0.000000000000000000, 0.000000000000000000, 128.0000000000000000 ) ) ;
#170 = LINE ( 'NONE', #220, #216 ) ;
#171 = APPROVAL_DATE_TIME ( #60, #230 ) ;
#172 = CC_DESIGN_PERSON_AND_ORGANIZATION_ASSIGNMENT ( #197, #65, ( #34 ) ) ;
#173 = SHAPE_DEFINITION_REPRESENTATION ( #53, #51 ) ;
#174 = AXIS2_PLACEMENT_3D ( 'NONE', #153, #147, #130 ) ;
#175 = LOCAL_TIME ( 19, 50, 43.00000000000000000, #136 ) ;
#176 = ORIENTED_EDGE ( 'NONE', *, *, #81, .F. ) ;
#177 = APPROVAL_STATUS ( 'not_yet_approved' ) ;
#178 = DIRECTION ( 'NONE',  ( 0.000000000000000000, 0.000000000000000000, 1.000000000000000000 ) ) ;
#179 = ORIENTED_EDGE ( 'NONE', *, *, #119, .F. ) ;
#180 = CARTESIAN_POINT ( 'NONE',  ( 0.000000000000000000, 0.000000000000000000, 128.0000000000000000 ) ) ;
#181 = DIRECTION ( 'NONE',  ( 1.000000000000000000, 0.000000000000000000, 0.000000000000000000 ) ) ;
#182 = ORIENTED_EDGE ( 'NONE', *, *, #37, .T. ) ;
#183 = ORIENTED_EDGE ( 'NONE', *, *, #37, .F. ) ;
#184 = ADVANCED_FACE ( 'NONE', ( #13 ), #160, .T. ) ;
#185 = CC_DESIGN_PERSON_AND_ORGANIZATION_ASSIGNMENT ( #41, #38, ( #85 ) ) ;
#186 = FACE_OUTER_BOUND ( 'NONE', #8, .T. ) ;
#187 = DIRECTION ( 'NONE',  ( -1.000000000000000000, 0.000000000000000000, 0.000000000000000000 ) ) ;
#188 = AXIS2_PLACEMENT_3D ( 'NONE', #92, #76, #187 ) ;
#189 = PERSON_AND_ORGANIZATION ( #103, #54 ) ;
#190 = DATE_TIME_ROLE ( 'classification_date' ) ;
#191 = UNCERTAINTY_MEASURE_WITH_UNIT (LENGTH_MEASURE( 1.000000000000000082E-05 ), #48, 'distance_accuracy_value', 'NONE');
#192 = APPROVAL_STATUS ( 'not_yet_approved' ) ;
#193 = PERSON_AND_ORGANIZATION_ROLE ( 'creator' ) ;
#194 = PRODUCT_DEFINITION_FORMATION_WITH_SPECIFIED_SOURCE ( 'LIBOVOLNÝ', '', #34, .NOT_KNOWN. ) ;
#195 = CC_DESIGN_PERSON_AND_ORGANIZATION_ASSIGNMENT ( #213, #193, ( #194 ) ) ;
#196 = ADVANCED_FACE ( 'NONE', ( #127 ), #7, .F. ) ;
#197 = PERSON_AND_ORGANIZATION ( #103, #54 ) ;
#198 = APPROVAL ( #192, 'NEURÈENÝ' ) ;
#199 = APPROVAL_PERSON_ORGANIZATION ( #58, #198, #140 ) ;
#200 = DIRECTION ( 'NONE',  ( 0.000000000000000000, 0.000000000000000000, 1.000000000000000000 ) ) ;
#201 = VERTEX_POINT ( 'NONE', #206 ) ;
#202 = CARTESIAN_POINT ( 'NONE',  ( 0.000000000000000000, 0.000000000000000000, 0.000000000000000000 ) ) ;
#203 = FACE_OUTER_BOUND ( 'NONE', #113, .T. ) ;
#204 = VERTEX_POINT ( 'NONE', #93 ) ;
#205 = LINE ( 'NONE', #133, #84 ) ;
#206 = CARTESIAN_POINT ( 'NONE',  ( 4.000000000000000000, 4.898587196589412829E-16, 3.000000000000000000 ) ) ;
#207 = CARTESIAN_POINT ( 'NONE',  ( -4.000000000000000000, 0.000000000000000000, 3.000000000000000000 ) ) ;
#208 = APPLICATION_CONTEXT ( 'configuration controlled 3d designs of mechanical parts and assemblies' ) ;
#209 = AXIS2_PLACEMENT_3D ( 'NONE', #97, #168, #226 ) ;
#210 = DIRECTION ( 'NONE',  ( -0.000000000000000000, -0.000000000000000000, -1.000000000000000000 ) ) ;
#211 = CALENDAR_DATE ( 2022, 7, 7 ) ;
#212 = APPROVAL_ROLE ( '' ) ;
#213 = PERSON_AND_ORGANIZATION ( #103, #54 ) ;
#214 = CIRCLE ( 'NONE', #251, 2.100000000000000089 ) ;
#215 = APPROVAL_PERSON_ORGANIZATION ( #107, #230, #122 ) ;
#216 = VECTOR ( 'NONE', #14, 1000.000000000000000 ) ;
#217 = ADVANCED_FACE ( 'NONE', ( #203 ), #68, .T. ) ;
#218 = DIRECTION ( 'NONE',  ( -0.000000000000000000, -0.000000000000000000, -1.000000000000000000 ) ) ;
#219 = ORIENTED_EDGE ( 'NONE', *, *, #237, .T. ) ;
#220 = CARTESIAN_POINT ( 'NONE',  ( -2.100000000000000089, 0.000000000000000000, 128.0000000000000000 ) ) ;
#221 = AXIS2_PLACEMENT_3D ( 'NONE', #169, #33, #167 ) ;
#222 = CARTESIAN_POINT ( 'NONE',  ( 0.000000000000000000, 0.000000000000000000, 3.000000000000000000 ) ) ;
#223 = DIRECTION ( 'NONE',  ( -1.000000000000000000, 0.000000000000000000, 0.000000000000000000 ) ) ;
#224 = CARTESIAN_POINT ( 'NONE',  ( 0.000000000000000000, 0.000000000000000000, 0.000000000000000000 ) ) ;
#225 = LINE ( 'NONE', #207, #116 ) ;
#226 = DIRECTION ( 'NONE',  ( -1.000000000000000000, 0.000000000000000000, 0.000000000000000000 ) ) ;
#227 = CARTESIAN_POINT ( 'NONE',  ( 0.000000000000000000, 0.000000000000000000, 3.000000000000000000 ) ) ;
#228 = CIRCLE ( 'NONE', #78, 4.000000000000000000 ) ;
#229 = DATE_TIME_ROLE ( 'creation_date' ) ;
#230 = APPROVAL ( #177, 'NEURÈENÝ' ) ;
#231 = EDGE_CURVE ( 'NONE', #106, #163, #109, .T. ) ;
#232 = CC_DESIGN_APPROVAL ( #95, ( #152 ) ) ;
#233 = COORDINATED_UNIVERSAL_TIME_OFFSET ( 1, 0, .AHEAD. ) ;
#234 = APPROVAL_DATE_TIME ( #138, #198 ) ;
#235 = LOCAL_TIME ( 19, 50, 43.00000000000000000, #120 ) ;
#236 = ORIENTED_EDGE ( 'NONE', *, *, #67, .F. ) ;
#237 = EDGE_CURVE ( 'NONE', #204, #63, #134, .T. ) ;
#238 = CC_DESIGN_SECURITY_CLASSIFICATION ( #152, ( #194 ) ) ;
#239 = CARTESIAN_POINT ( 'NONE',  ( -4.000000000000000000, 0.000000000000000000, 3.000000000000000000 ) ) ;
#240 = VERTEX_POINT ( 'NONE', #239 ) ;
#241 = DIRECTION ( 'NONE',  ( 0.000000000000000000, 0.000000000000000000, 1.000000000000000000 ) ) ;
#242 = ORIENTED_EDGE ( 'NONE', *, *, #237, .F. ) ;
#243 = CYLINDRICAL_SURFACE ( 'NONE', #124, 4.000000000000000000 ) ;
#244 = ORIENTED_EDGE ( 'NONE', *, *, #15, .F. ) ;
#245 = CARTESIAN_POINT ( 'NONE',  ( 2.100000000000000089, 2.571758278209441957E-16, 128.0000000000000000 ) ) ;
#246 = DIRECTION ( 'NONE',  ( 1.000000000000000000, 0.000000000000000000, 0.000000000000000000 ) ) ;
#247 = CYLINDRICAL_SURFACE ( 'NONE', #188, 2.100000000000000089 ) ;
#248 = CARTESIAN_POINT ( 'NONE',  ( 4.000000000000000000, 4.898587196589412829E-16, 0.000000000000000000 ) ) ;
#249 = CC_DESIGN_APPROVAL ( #198, ( #194 ) ) ;
#250 = CC_DESIGN_DATE_AND_TIME_ASSIGNMENT ( #252, #229, ( #85 ) ) ;
#251 = AXIS2_PLACEMENT_3D ( 'NONE', #180, #241, #149 ) ;
#252 = DATE_AND_TIME ( #254, #20 ) ;
#253 = EDGE_CURVE ( 'NONE', #163, #106, #3, .T. ) ;
#254 = CALENDAR_DATE ( 2022, 7, 7 ) ;
#255 = LOCAL_TIME ( 19, 50, 43.00000000000000000, #233 ) ;
ENDSEC;
END-ISO-10303-21;
