ISO-10303-21;
HEADER;
FILE_DESCRIPTION (( 'STEP AP203' ),
    '1' );
FILE_NAME ('9ecf.STEP',
    '2022-07-07T17:20:31',
    ( '' ),
    ( '' ),
    'SwSTEP 2.0',
    'SolidWorks 2019',
    '' );
FILE_SCHEMA (( 'CONFIG_CONTROL_DESIGN' ));
ENDSEC;

DATA;
#1 = CARTESIAN_POINT ( 'NONE',  ( 0.000000000000000000, 0.000000000000000000, 7.000000000000000000 ) ) ;
#2 = ORIENTED_EDGE ( 'NONE', *, *, #78, .T. ) ;
#3 = DIRECTION ( 'NONE',  ( 1.000000000000000000, 0.000000000000000000, 0.000000000000000000 ) ) ;
#4 = VERTEX_POINT ( 'NONE', #222 ) ;
#5 = ADVANCED_FACE ( 'NONE', ( #242 ), #88, .F. ) ;
#6 = DIRECTION ( 'NONE',  ( 1.000000000000000000, 0.000000000000000000, -0.000000000000000000 ) ) ;
#7 =( LENGTH_UNIT ( ) NAMED_UNIT ( * ) SI_UNIT ( .MILLI., .METRE. ) );
#8 = ORIENTED_EDGE ( 'NONE', *, *, #19, .T. ) ;
#9 = EDGE_CURVE ( 'NONE', #215, #229, #206, .T. ) ;
#10 = CARTESIAN_POINT ( 'NONE',  ( 0.000000000000000000, 0.000000000000000000, 7.000000000000000000 ) ) ;
#11 = VECTOR ( 'NONE', #225, 1000.000000000000000 ) ;
#12 = VERTEX_POINT ( 'NONE', #55 ) ;
#13 = DIRECTION ( 'NONE',  ( 0.000000000000000000, 0.000000000000000000, 1.000000000000000000 ) ) ;
#14 = CALENDAR_DATE ( 2022, 7, 7 ) ;
#15 = CARTESIAN_POINT ( 'NONE',  ( 0.000000000000000000, 0.000000000000000000, 0.000000000000000000 ) ) ;
#16 = ORGANIZATION ( 'NEURÈENÝ', 'NEURÈENÝ', '' ) ;
#17 = CC_DESIGN_PERSON_AND_ORGANIZATION_ASSIGNMENT ( #34, #187, ( #240 ) ) ;
#18 = ADVANCED_FACE ( 'NONE', ( #150 ), #142, .T. ) ;
#19 = EDGE_CURVE ( 'NONE', #4, #229, #73, .T. ) ;
#20 = PRODUCT_DEFINITION_SHAPE ( 'NONE', 'NONE',  #194 ) ;
#21 = LOCAL_TIME ( 19, 20, 31.00000000000000000, #228 ) ;
#22 = FACE_OUTER_BOUND ( 'NONE', #108, .T. ) ;
#23 = AXIS2_PLACEMENT_3D ( 'NONE', #128, #124, #166 ) ;
#24 = PERSON_AND_ORGANIZATION_ROLE ( 'classification_officer' ) ;
#25 = DIRECTION ( 'NONE',  ( -1.000000000000000000, 0.000000000000000000, 0.000000000000000000 ) ) ;
#26 = CARTESIAN_POINT ( 'NONE',  ( 0.000000000000000000, 0.000000000000000000, 107.0000000000000142 ) ) ;
#27 = ORIENTED_EDGE ( 'NONE', *, *, #9, .T. ) ;
#28 = DESIGN_CONTEXT ( 'detailed design', #64, 'design' ) ;
#29 = ORIENTED_EDGE ( 'NONE', *, *, #101, .F. ) ;
#30 = DIRECTION ( 'NONE',  ( 0.000000000000000000, 0.000000000000000000, 1.000000000000000000 ) ) ;
#31 = DATE_AND_TIME ( #214, #209 ) ;
#32 = ORIENTED_EDGE ( 'NONE', *, *, #172, .F. ) ;
#33 = CARTESIAN_POINT ( 'NONE',  ( -6.000000000000000888, 0.000000000000000000, 7.000000000000000000 ) ) ;
#34 = PERSON_AND_ORGANIZATION ( #139, #16 ) ;
#35 = CIRCLE ( 'NONE', #160, 6.000000000000000888 ) ;
#36 = ORIENTED_EDGE ( 'NONE', *, *, #80, .T. ) ;
#37 = CARTESIAN_POINT ( 'NONE',  ( 0.000000000000000000, 0.000000000000000000, 0.000000000000000000 ) ) ;
#38 = ORIENTED_EDGE ( 'NONE', *, *, #155, .T. ) ;
#39 = ORIENTED_EDGE ( 'NONE', *, *, #175, .F. ) ;
#40 = CC_DESIGN_APPROVAL ( #158, ( #194 ) ) ;
#41 = APPROVAL_STATUS ( 'not_yet_approved' ) ;
#42 = CIRCLE ( 'NONE', #173, 9.000000000000000000 ) ;
#43 = AXIS2_PLACEMENT_3D ( 'NONE', #10, #164, #223 ) ;
#44 = DIRECTION ( 'NONE',  ( -0.000000000000000000, -0.000000000000000000, -1.000000000000000000 ) ) ;
#45 = APPROVAL_DATE_TIME ( #31, #158 ) ;
#46 = ORIENTED_EDGE ( 'NONE', *, *, #57, .F. ) ;
#47 = DIRECTION ( 'NONE',  ( 0.000000000000000000, 0.000000000000000000, 1.000000000000000000 ) ) ;
#48 = ORIENTED_EDGE ( 'NONE', *, *, #252, .T. ) ;
#49 = LINE ( 'NONE', #245, #236 ) ;
#50 = CALENDAR_DATE ( 2022, 7, 7 ) ;
#51 = FACE_OUTER_BOUND ( 'NONE', #126, .T. ) ;
#52 = CARTESIAN_POINT ( 'NONE',  ( -9.000000000000000000, 0.000000000000000000, 7.000000000000000000 ) ) ;
#53 = AXIS2_PLACEMENT_3D ( 'NONE', #37, #177, #161 ) ;
#54 = APPROVAL_STATUS ( 'not_yet_approved' ) ;
#55 = CARTESIAN_POINT ( 'NONE',  ( 9.000000000000000000, 1.102182119232617714E-15, 0.000000000000000000 ) ) ;
#56 = CYLINDRICAL_SURFACE ( 'NONE', #235, 9.000000000000000000 ) ;
#57 = EDGE_CURVE ( 'NONE', #106, #12, #79, .T. ) ;
#58 = AXIS2_PLACEMENT_3D ( 'NONE', #131, #95, #205 ) ;
#59 = COORDINATED_UNIVERSAL_TIME_OFFSET ( 1, 0, .AHEAD. ) ;
#60 = AXIS2_PLACEMENT_3D ( 'NONE', #1, #30, #207 ) ;
#61 = CALENDAR_DATE ( 2022, 7, 7 ) ;
#62 = CIRCLE ( 'NONE', #53, 9.000000000000000000 ) ;
#63 = ORIENTED_EDGE ( 'NONE', *, *, #101, .T. ) ;
#64 = APPLICATION_CONTEXT ( 'configuration controlled 3d designs of mechanical parts and assemblies' ) ;
#65 = ORIENTED_EDGE ( 'NONE', *, *, #210, .F. ) ;
#66 = CC_DESIGN_DATE_AND_TIME_ASSIGNMENT ( #130, #201, ( #194 ) ) ;
#67 = ADVANCED_FACE ( 'NONE', ( #51 ), #179, .T. ) ;
#68 = CARTESIAN_POINT ( 'NONE',  ( -9.000000000000000000, 0.000000000000000000, 0.000000000000000000 ) ) ;
#69 = CARTESIAN_POINT ( 'NONE',  ( 0.000000000000000000, 0.000000000000000000, 0.000000000000000000 ) ) ;
#70 = DIRECTION ( 'NONE',  ( 0.000000000000000000, 0.000000000000000000, 1.000000000000000000 ) ) ;
#71 = CARTESIAN_POINT ( 'NONE',  ( 0.000000000000000000, 0.000000000000000000, 107.0000000000000142 ) ) ;
#72 = APPLICATION_PROTOCOL_DEFINITION ( 'international standard', 'config_control_design', 1994, #192 ) ;
#73 = LINE ( 'NONE', #171, #11 ) ;
#74 = CARTESIAN_POINT ( 'NONE',  ( 0.000000000000000000, 0.000000000000000000, 7.000000000000000000 ) ) ;
#75 = PRODUCT_RELATED_PRODUCT_CATEGORY ( 'detail', '', ( #216 ) ) ;
#76 = APPROVAL_ROLE ( '' ) ;
#77 = FACE_OUTER_BOUND ( 'NONE', #251, .T. ) ;
#78 = EDGE_CURVE ( 'NONE', #226, #215, #110, .T. ) ;
#79 = LINE ( 'NONE', #184, #119 ) ;
#80 = EDGE_CURVE ( 'NONE', #106, #219, #90, .T. ) ;
#81 = LOCAL_TIME ( 19, 20, 31.00000000000000000, #103 ) ;
#82 = FACE_OUTER_BOUND ( 'NONE', #116, .T. ) ;
#83 = CALENDAR_DATE ( 2022, 7, 7 ) ;
#84 = EDGE_LOOP ( 'NONE', ( #153, #8, #63, #92 ) ) ;
#85 = APPROVAL_PERSON_ORGANIZATION ( #253, #178, #176 ) ;
#86 = DIRECTION ( 'NONE',  ( 1.000000000000000000, 0.000000000000000000, 0.000000000000000000 ) ) ;
#87 = PERSON_AND_ORGANIZATION_ROLE ( 'design_owner' ) ;
#88 = PLANE ( 'NONE',  #145 ) ;
#89 = PLANE ( 'NONE',  #185 ) ;
#90 = CIRCLE ( 'NONE', #233, 9.000000000000000000 ) ;
#91 = DIRECTION ( 'NONE',  ( 0.000000000000000000, 0.000000000000000000, 1.000000000000000000 ) ) ;
#92 = ORIENTED_EDGE ( 'NONE', *, *, #78, .F. ) ;
#93 = PLANE ( 'NONE',  #114 ) ;
#94 = MECHANICAL_CONTEXT ( 'NONE', #192, 'mechanical' ) ;
#95 = DIRECTION ( 'NONE',  ( -0.000000000000000000, -0.000000000000000000, -1.000000000000000000 ) ) ;
#96 = CIRCLE ( 'NONE', #109, 6.000000000000000888 ) ;
#97 = ADVANCED_BREP_SHAPE_REPRESENTATION ( '9ecf', ( #237, #208 ), #143 ) ;
#98 = CC_DESIGN_PERSON_AND_ORGANIZATION_ASSIGNMENT ( #196, #24, ( #211 ) ) ;
#99 = VERTEX_POINT ( 'NONE', #68 ) ;
#100 = LOCAL_TIME ( 19, 20, 31.00000000000000000, #217 ) ;
#101 = EDGE_CURVE ( 'NONE', #229, #215, #156, .T. ) ;
#102 = CARTESIAN_POINT ( 'NONE',  ( -6.000000000000000888, 0.000000000000000000, 107.0000000000000142 ) ) ;
#103 = COORDINATED_UNIVERSAL_TIME_OFFSET ( 1, 0, .AHEAD. ) ;
#104 = DIRECTION ( 'NONE',  ( -0.000000000000000000, -0.000000000000000000, -1.000000000000000000 ) ) ;
#105 = CARTESIAN_POINT ( 'NONE',  ( 0.000000000000000000, 0.000000000000000000, 7.000000000000000000 ) ) ;
#106 = VERTEX_POINT ( 'NONE', #122 ) ;
#107 =( NAMED_UNIT ( * ) SI_UNIT ( $, .STERADIAN. ) SOLID_ANGLE_UNIT ( ) );
#108 = EDGE_LOOP ( 'NONE', ( #144, #163, #2, #27 ) ) ;
#109 = AXIS2_PLACEMENT_3D ( 'NONE', #71, #149, #220 ) ;
#110 = LINE ( 'NONE', #113, #167 ) ;
#111 = PERSON_AND_ORGANIZATION ( #139, #16 ) ;
#112 = DIRECTION ( 'NONE',  ( -0.000000000000000000, -0.000000000000000000, -1.000000000000000000 ) ) ;
#113 = CARTESIAN_POINT ( 'NONE',  ( -6.000000000000000888, 0.000000000000000000, 107.0000000000000142 ) ) ;
#114 = AXIS2_PLACEMENT_3D ( 'NONE', #168, #195, #6 ) ;
#115 = APPROVAL_ROLE ( '' ) ;
#116 = EDGE_LOOP ( 'NONE', ( #46, #65, #199, #48 ) ) ;
#117 = ORIENTED_EDGE ( 'NONE', *, *, #80, .F. ) ;
#118 = CC_DESIGN_PERSON_AND_ORGANIZATION_ASSIGNMENT ( #221, #249, ( #194 ) ) ;
#119 = VECTOR ( 'NONE', #112, 1000.000000000000000 ) ;
#120 = ADVANCED_FACE ( 'NONE', ( #227, #243 ), #89, .T. ) ;
#121 = CC_DESIGN_SECURITY_CLASSIFICATION ( #211, ( #240 ) ) ;
#122 = CARTESIAN_POINT ( 'NONE',  ( 9.000000000000000000, 1.102182119232617714E-15, 7.000000000000000000 ) ) ;
#123 = SECURITY_CLASSIFICATION_LEVEL ( 'unclassified' ) ;
#124 = DIRECTION ( 'NONE',  ( 0.000000000000000000, 0.000000000000000000, 1.000000000000000000 ) ) ;
#125 = DIRECTION ( 'NONE',  ( -1.000000000000000000, 0.000000000000000000, 0.000000000000000000 ) ) ;
#126 = EDGE_LOOP ( 'NONE', ( #117, #188, #197, #32 ) ) ;
#127 = ADVANCED_FACE ( 'NONE', ( #77 ), #93, .T. ) ;
#128 = CARTESIAN_POINT ( 'NONE',  ( 0.000000000000000000, 0.000000000000000000, 7.000000000000000000 ) ) ;
#129 = CARTESIAN_POINT ( 'NONE',  ( 0.000000000000000000, 0.000000000000000000, 107.0000000000000142 ) ) ;
#130 = DATE_AND_TIME ( #50, #100 ) ;
#131 = CARTESIAN_POINT ( 'NONE',  ( 0.000000000000000000, 0.000000000000000000, 7.000000000000000000 ) ) ;
#132 = CARTESIAN_POINT ( 'NONE',  ( 6.000000000000000888, 7.347880794884120722E-16, 7.000000000000000000 ) ) ;
#133 = DATE_AND_TIME ( #14, #21 ) ;
#134 = ORIENTED_EDGE ( 'NONE', *, *, #213, .T. ) ;
#135 = DIRECTION ( 'NONE',  ( -1.000000000000000000, 0.000000000000000000, 0.000000000000000000 ) ) ;
#136 = PERSON_AND_ORGANIZATION_ROLE ( 'design_supplier' ) ;
#137 = CC_DESIGN_PERSON_AND_ORGANIZATION_ASSIGNMENT ( #183, #87, ( #216 ) ) ;
#138 = CC_DESIGN_APPROVAL ( #178, ( #211 ) ) ;
#139 = PERSON ( 'NEURÈENÝ', 'NEURÈENÝ', 'NEURÈENÝ', ('NEURÈENÝ'), ('NEURÈENÝ'), ('NEURÈENÝ') ) ;
#140 = CC_DESIGN_DATE_AND_TIME_ASSIGNMENT ( #162, #241, ( #211 ) ) ;
#141 =( NAMED_UNIT ( * ) PLANE_ANGLE_UNIT ( ) SI_UNIT ( $, .RADIAN. ) );
#142 = CYLINDRICAL_SURFACE ( 'NONE', #218, 6.000000000000000888 ) ;
#143 =( GEOMETRIC_REPRESENTATION_CONTEXT ( 3 ) GLOBAL_UNCERTAINTY_ASSIGNED_CONTEXT ( ( #250 ) ) GLOBAL_UNIT_ASSIGNED_CONTEXT ( ( #7, #141, #107 ) ) REPRESENTATION_CONTEXT ( 'NONE', 'WORKASPACE' ) );
#144 = ORIENTED_EDGE ( 'NONE', *, *, #19, .F. ) ;
#145 = AXIS2_PLACEMENT_3D ( 'NONE', #15, #70, #247 ) ;
#146 = DIRECTION ( 'NONE',  ( 0.000000000000000000, 0.000000000000000000, 1.000000000000000000 ) ) ;
#147 = COORDINATED_UNIVERSAL_TIME_OFFSET ( 1, 0, .AHEAD. ) ;
#148 = EDGE_LOOP ( 'NONE', ( #191, #29 ) ) ;
#149 = DIRECTION ( 'NONE',  ( 0.000000000000000000, 0.000000000000000000, 1.000000000000000000 ) ) ;
#150 = FACE_OUTER_BOUND ( 'NONE', #84, .T. ) ;
#151 = CYLINDRICAL_SURFACE ( 'NONE', #193, 6.000000000000000888 ) ;
#152 = PERSON_AND_ORGANIZATION ( #139, #16 ) ;
#153 = ORIENTED_EDGE ( 'NONE', *, *, #155, .F. ) ;
#154 = APPROVAL_PERSON_ORGANIZATION ( #224, #254, #115 ) ;
#155 = EDGE_CURVE ( 'NONE', #4, #226, #35, .T. ) ;
#156 = CIRCLE ( 'NONE', #43, 6.000000000000000888 ) ;
#157 = APPROVAL_DATE_TIME ( #174, #178 ) ;
#158 = APPROVAL ( #165, 'NEURÈENÝ' ) ;
#159 = APPROVAL_PERSON_ORGANIZATION ( #111, #158, #76 ) ;
#160 = AXIS2_PLACEMENT_3D ( 'NONE', #26, #186, #170 ) ;
#161 = DIRECTION ( 'NONE',  ( 1.000000000000000000, 0.000000000000000000, 0.000000000000000000 ) ) ;
#162 = DATE_AND_TIME ( #83, #81 ) ;
#163 = ORIENTED_EDGE ( 'NONE', *, *, #213, .F. ) ;
#164 = DIRECTION ( 'NONE',  ( 0.000000000000000000, 0.000000000000000000, 1.000000000000000000 ) ) ;
#165 = APPROVAL_STATUS ( 'not_yet_approved' ) ;
#166 = DIRECTION ( 'NONE',  ( 1.000000000000000000, 0.000000000000000000, 0.000000000000000000 ) ) ;
#167 = VECTOR ( 'NONE', #182, 1000.000000000000000 ) ;
#168 = CARTESIAN_POINT ( 'NONE',  ( 0.000000000000000000, 0.000000000000000000, 107.0000000000000142 ) ) ;
#169 = EDGE_LOOP ( 'NONE', ( #181, #39 ) ) ;
#170 = DIRECTION ( 'NONE',  ( 1.000000000000000000, 0.000000000000000000, 0.000000000000000000 ) ) ;
#171 = CARTESIAN_POINT ( 'NONE',  ( 6.000000000000000888, 7.347880794884120722E-16, 107.0000000000000142 ) ) ;
#172 = EDGE_CURVE ( 'NONE', #219, #99, #49, .T. ) ;
#173 = AXIS2_PLACEMENT_3D ( 'NONE', #239, #47, #248 ) ;
#174 = DATE_AND_TIME ( #61, #232 ) ;
#175 = EDGE_CURVE ( 'NONE', #12, #99, #42, .T. ) ;
#176 = APPROVAL_ROLE ( '' ) ;
#177 = DIRECTION ( 'NONE',  ( 0.000000000000000000, 0.000000000000000000, 1.000000000000000000 ) ) ;
#178 = APPROVAL ( #41, 'NEURÈENÝ' ) ;
#179 = CYLINDRICAL_SURFACE ( 'NONE', #58, 9.000000000000000000 ) ;
#180 = DIRECTION ( 'NONE',  ( -0.000000000000000000, -0.000000000000000000, -1.000000000000000000 ) ) ;
#181 = ORIENTED_EDGE ( 'NONE', *, *, #252, .F. ) ;
#182 = DIRECTION ( 'NONE',  ( -0.000000000000000000, -0.000000000000000000, -1.000000000000000000 ) ) ;
#183 = PERSON_AND_ORGANIZATION ( #139, #16 ) ;
#184 = CARTESIAN_POINT ( 'NONE',  ( 9.000000000000000000, 1.102182119232617714E-15, 7.000000000000000000 ) ) ;
#185 = AXIS2_PLACEMENT_3D ( 'NONE', #198, #146, #203 ) ;
#186 = DIRECTION ( 'NONE',  ( 0.000000000000000000, 0.000000000000000000, 1.000000000000000000 ) ) ;
#187 = PERSON_AND_ORGANIZATION_ROLE ( 'creator' ) ;
#188 = ORIENTED_EDGE ( 'NONE', *, *, #57, .T. ) ;
#189 = CLOSED_SHELL ( 'NONE', ( #18, #67, #231, #120, #5, #212, #127 ) ) ;
#190 = CC_DESIGN_APPROVAL ( #254, ( #240 ) ) ;
#191 = ORIENTED_EDGE ( 'NONE', *, *, #9, .F. ) ;
#192 = APPLICATION_CONTEXT ( 'configuration controlled 3d designs of mechanical parts and assemblies' ) ;
#193 = AXIS2_PLACEMENT_3D ( 'NONE', #129, #44, #125 ) ;
#194 = PRODUCT_DEFINITION ( 'NEZNÁMÝ', '', #240, #28 ) ;
#195 = DIRECTION ( 'NONE',  ( 0.000000000000000000, 0.000000000000000000, 1.000000000000000000 ) ) ;
#196 = PERSON_AND_ORGANIZATION ( #139, #16 ) ;
#197 = ORIENTED_EDGE ( 'NONE', *, *, #175, .T. ) ;
#198 = CARTESIAN_POINT ( 'NONE',  ( 0.000000000000000000, 0.000000000000000000, 7.000000000000000000 ) ) ;
#199 = ORIENTED_EDGE ( 'NONE', *, *, #172, .T. ) ;
#200 = DIRECTION ( 'NONE',  ( -0.000000000000000000, -0.000000000000000000, -1.000000000000000000 ) ) ;
#201 = DATE_TIME_ROLE ( 'creation_date' ) ;
#202 = ORIENTED_EDGE ( 'NONE', *, *, #210, .T. ) ;
#203 = DIRECTION ( 'NONE',  ( 1.000000000000000000, 0.000000000000000000, -0.000000000000000000 ) ) ;
#204 = APPROVAL_DATE_TIME ( #133, #254 ) ;
#205 = DIRECTION ( 'NONE',  ( -1.000000000000000000, 0.000000000000000000, 0.000000000000000000 ) ) ;
#206 = CIRCLE ( 'NONE', #23, 6.000000000000000888 ) ;
#207 = DIRECTION ( 'NONE',  ( 1.000000000000000000, 0.000000000000000000, 0.000000000000000000 ) ) ;
#208 = AXIS2_PLACEMENT_3D ( 'NONE', #69, #91, #3 ) ;
#209 = LOCAL_TIME ( 19, 20, 31.00000000000000000, #147 ) ;
#210 = EDGE_CURVE ( 'NONE', #219, #106, #255, .T. ) ;
#211 = SECURITY_CLASSIFICATION ( '', '', #123 ) ;
#212 = ADVANCED_FACE ( 'NONE', ( #22 ), #151, .T. ) ;
#213 = EDGE_CURVE ( 'NONE', #226, #4, #96, .T. ) ;
#214 = CALENDAR_DATE ( 2022, 7, 7 ) ;
#215 = VERTEX_POINT ( 'NONE', #33 ) ;
#216 = PRODUCT ( '9ecf', '9ecf', '', ( #94 ) ) ;
#217 = COORDINATED_UNIVERSAL_TIME_OFFSET ( 1, 0, .AHEAD. ) ;
#218 = AXIS2_PLACEMENT_3D ( 'NONE', #244, #104, #25 ) ;
#219 = VERTEX_POINT ( 'NONE', #52 ) ;
#220 = DIRECTION ( 'NONE',  ( 1.000000000000000000, 0.000000000000000000, 0.000000000000000000 ) ) ;
#221 = PERSON_AND_ORGANIZATION ( #139, #16 ) ;
#222 = CARTESIAN_POINT ( 'NONE',  ( 6.000000000000000888, 7.347880794884120722E-16, 107.0000000000000142 ) ) ;
#223 = DIRECTION ( 'NONE',  ( 1.000000000000000000, 0.000000000000000000, 0.000000000000000000 ) ) ;
#224 = PERSON_AND_ORGANIZATION ( #139, #16 ) ;
#225 = DIRECTION ( 'NONE',  ( -0.000000000000000000, -0.000000000000000000, -1.000000000000000000 ) ) ;
#226 = VERTEX_POINT ( 'NONE', #102 ) ;
#227 = FACE_BOUND ( 'NONE', #148, .T. ) ;
#228 = COORDINATED_UNIVERSAL_TIME_OFFSET ( 1, 0, .AHEAD. ) ;
#229 = VERTEX_POINT ( 'NONE', #132 ) ;
#230 = CC_DESIGN_PERSON_AND_ORGANIZATION_ASSIGNMENT ( #152, #136, ( #240 ) ) ;
#231 = ADVANCED_FACE ( 'NONE', ( #82 ), #56, .T. ) ;
#232 = LOCAL_TIME ( 19, 20, 31.00000000000000000, #59 ) ;
#233 = AXIS2_PLACEMENT_3D ( 'NONE', #74, #13, #86 ) ;
#234 = SHAPE_DEFINITION_REPRESENTATION ( #20, #97 ) ;
#235 = AXIS2_PLACEMENT_3D ( 'NONE', #105, #180, #135 ) ;
#236 = VECTOR ( 'NONE', #200, 1000.000000000000000 ) ;
#237 = MANIFOLD_SOLID_BREP ( 'Pøidat vysunutím3', #189 ) ;
#238 = EDGE_LOOP ( 'NONE', ( #202, #36 ) ) ;
#239 = CARTESIAN_POINT ( 'NONE',  ( 0.000000000000000000, 0.000000000000000000, 0.000000000000000000 ) ) ;
#240 = PRODUCT_DEFINITION_FORMATION_WITH_SPECIFIED_SOURCE ( 'LIBOVOLNÝ', '', #216, .NOT_KNOWN. ) ;
#241 = DATE_TIME_ROLE ( 'classification_date' ) ;
#242 = FACE_OUTER_BOUND ( 'NONE', #169, .T. ) ;
#243 = FACE_OUTER_BOUND ( 'NONE', #238, .T. ) ;
#244 = CARTESIAN_POINT ( 'NONE',  ( 0.000000000000000000, 0.000000000000000000, 107.0000000000000142 ) ) ;
#245 = CARTESIAN_POINT ( 'NONE',  ( -9.000000000000000000, 0.000000000000000000, 7.000000000000000000 ) ) ;
#246 = APPLICATION_PROTOCOL_DEFINITION ( 'international standard', 'config_control_design', 1994, #64 ) ;
#247 = DIRECTION ( 'NONE',  ( 1.000000000000000000, 0.000000000000000000, -0.000000000000000000 ) ) ;
#248 = DIRECTION ( 'NONE',  ( 1.000000000000000000, 0.000000000000000000, 0.000000000000000000 ) ) ;
#249 = PERSON_AND_ORGANIZATION_ROLE ( 'creator' ) ;
#250 = UNCERTAINTY_MEASURE_WITH_UNIT (LENGTH_MEASURE( 1.000000000000000082E-05 ), #7, 'distance_accuracy_value', 'NONE');
#251 = EDGE_LOOP ( 'NONE', ( #134, #38 ) ) ;
#252 = EDGE_CURVE ( 'NONE', #99, #12, #62, .T. ) ;
#253 = PERSON_AND_ORGANIZATION ( #139, #16 ) ;
#254 = APPROVAL ( #54, 'NEURÈENÝ' ) ;
#255 = CIRCLE ( 'NONE', #60, 9.000000000000000000 ) ;
ENDSEC;
END-ISO-10303-21;
