ISO-10303-21;
HEADER;
FILE_DESCRIPTION (( 'STEP AP203' ),
    '1' );
FILE_NAME ('fdf6.STEP',
    '2022-07-07T17:05:16',
    ( '' ),
    ( '' ),
    'SwSTEP 2.0',
    'SolidWorks 2019',
    '' );
FILE_SCHEMA (( 'CONFIG_CONTROL_DESIGN' ));
ENDSEC;

DATA;
#1 = APPROVAL_ROLE ( '' ) ;
#2 = ORIENTED_EDGE ( 'NONE', *, *, #216, .F. ) ;
#3 = APPROVAL_DATE_TIME ( #71, #42 ) ;
#4 = ORIENTED_EDGE ( 'NONE', *, *, #104, .T. ) ;
#5 = VECTOR ( 'NONE', #198, 1000.000000000000000 ) ;
#6 = PRODUCT ( 'fdf6', 'fdf6', '', ( #41 ) ) ;
#7 = DIRECTION ( 'NONE',  ( 0.000000000000000000, 0.000000000000000000, 1.000000000000000000 ) ) ;
#8 = DIRECTION ( 'NONE',  ( 1.000000000000000000, 0.000000000000000000, 0.000000000000000000 ) ) ;
#9 = CARTESIAN_POINT ( 'NONE',  ( 0.000000000000000000, 0.000000000000000000, 0.000000000000000000 ) ) ;
#10 = ADVANCED_FACE ( 'NONE', ( #231 ), #130, .T. ) ;
#11 = VECTOR ( 'NONE', #203, 1000.000000000000000 ) ;
#12 = DIRECTION ( 'NONE',  ( -0.000000000000000000, -0.000000000000000000, -1.000000000000000000 ) ) ;
#13 = ORGANIZATION ( 'NEURÈENÝ', 'NEURÈENÝ', '' ) ;
#14 = ORIENTED_EDGE ( 'NONE', *, *, #96, .F. ) ;
#15 = PLANE ( 'NONE',  #131 ) ;
#16 = AXIS2_PLACEMENT_3D ( 'NONE', #49, #45, #125 ) ;
#17 = CARTESIAN_POINT ( 'NONE',  ( 0.000000000000000000, 0.000000000000000000, 0.000000000000000000 ) ) ;
#18 = DIRECTION ( 'NONE',  ( -0.000000000000000000, -0.000000000000000000, -1.000000000000000000 ) ) ;
#19 = APPROVAL_STATUS ( 'not_yet_approved' ) ;
#20 = APPROVAL ( #70, 'NEURÈENÝ' ) ;
#21 = DATE_TIME_ROLE ( 'classification_date' ) ;
#22 =( GEOMETRIC_REPRESENTATION_CONTEXT ( 3 ) GLOBAL_UNCERTAINTY_ASSIGNED_CONTEXT ( ( #79 ) ) GLOBAL_UNIT_ASSIGNED_CONTEXT ( ( #164, #23, #224 ) ) REPRESENTATION_CONTEXT ( 'NONE', 'WORKASPACE' ) );
#23 =( NAMED_UNIT ( * ) PLANE_ANGLE_UNIT ( ) SI_UNIT ( $, .RADIAN. ) );
#24 = AXIS2_PLACEMENT_3D ( 'NONE', #141, #85, #40 ) ;
#25 = CARTESIAN_POINT ( 'NONE',  ( 9.000000000000001776, 1.102182119232617911E-15, 207.0000000000000284 ) ) ;
#26 = ORIENTED_EDGE ( 'NONE', *, *, #242, .F. ) ;
#27 = LOCAL_TIME ( 19, 5, 16.00000000000000000, #158 ) ;
#28 = CARTESIAN_POINT ( 'NONE',  ( 0.000000000000000000, 0.000000000000000000, 207.0000000000000284 ) ) ;
#29 = ORIENTED_EDGE ( 'NONE', *, *, #230, .F. ) ;
#30 = ORIENTED_EDGE ( 'NONE', *, *, #83, .F. ) ;
#31 = FACE_OUTER_BOUND ( 'NONE', #202, .T. ) ;
#32 = AXIS2_PLACEMENT_3D ( 'NONE', #232, #51, #132 ) ;
#33 = ORIENTED_EDGE ( 'NONE', *, *, #174, .F. ) ;
#34 = LOCAL_TIME ( 19, 5, 16.00000000000000000, #215 ) ;
#35 = PRODUCT_DEFINITION ( 'NEZNÁMÝ', '', #86, #161 ) ;
#36 = APPROVAL_ROLE ( '' ) ;
#37 = APPROVAL_DATE_TIME ( #211, #20 ) ;
#38 = ORIENTED_EDGE ( 'NONE', *, *, #149, .T. ) ;
#39 = VERTEX_POINT ( 'NONE', #254 ) ;
#40 = DIRECTION ( 'NONE',  ( -1.000000000000000000, 0.000000000000000000, 0.000000000000000000 ) ) ;
#41 = MECHANICAL_CONTEXT ( 'NONE', #234, 'mechanical' ) ;
#42 = APPROVAL ( #134, 'NEURÈENÝ' ) ;
#43 = CARTESIAN_POINT ( 'NONE',  ( 0.000000000000000000, 0.000000000000000000, 0.000000000000000000 ) ) ;
#44 = DIRECTION ( 'NONE',  ( -0.000000000000000000, -0.000000000000000000, -1.000000000000000000 ) ) ;
#45 = DIRECTION ( 'NONE',  ( 0.000000000000000000, 0.000000000000000000, 1.000000000000000000 ) ) ;
#46 = EDGE_CURVE ( 'NONE', #239, #56, #80, .T. ) ;
#47 = CARTESIAN_POINT ( 'NONE',  ( -9.000000000000001776, 0.000000000000000000, 207.0000000000000284 ) ) ;
#48 = CARTESIAN_POINT ( 'NONE',  ( 0.000000000000000000, 0.000000000000000000, 7.000000000000000000 ) ) ;
#49 = CARTESIAN_POINT ( 'NONE',  ( 0.000000000000000000, 0.000000000000000000, 207.0000000000000284 ) ) ;
#50 = AXIS2_PLACEMENT_3D ( 'NONE', #17, #253, #68 ) ;
#51 = DIRECTION ( 'NONE',  ( 0.000000000000000000, 0.000000000000000000, 1.000000000000000000 ) ) ;
#52 = CIRCLE ( 'NONE', #184, 9.000000000000001776 ) ;
#53 = APPLICATION_PROTOCOL_DEFINITION ( 'international standard', 'config_control_design', 1994, #247 ) ;
#54 = AXIS2_PLACEMENT_3D ( 'NONE', #170, #251, #207 ) ;
#55 = CALENDAR_DATE ( 2022, 7, 7 ) ;
#56 = VERTEX_POINT ( 'NONE', #47 ) ;
#57 = PERSON_AND_ORGANIZATION ( #148, #13 ) ;
#58 = ADVANCED_FACE ( 'NONE', ( #90 ), #93, .T. ) ;
#59 = VECTOR ( 'NONE', #146, 1000.000000000000000 ) ;
#60 = EDGE_LOOP ( 'NONE', ( #29, #14, #241, #138 ) ) ;
#61 = DIRECTION ( 'NONE',  ( 1.000000000000000000, 0.000000000000000000, 0.000000000000000000 ) ) ;
#62 = DIRECTION ( 'NONE',  ( 0.000000000000000000, 0.000000000000000000, 1.000000000000000000 ) ) ;
#63 = ORIENTED_EDGE ( 'NONE', *, *, #149, .F. ) ;
#64 = DIRECTION ( 'NONE',  ( 0.000000000000000000, 0.000000000000000000, 1.000000000000000000 ) ) ;
#65 = VECTOR ( 'NONE', #12, 1000.000000000000000 ) ;
#66 = APPROVAL_PERSON_ORGANIZATION ( #72, #42, #1 ) ;
#67 = VERTEX_POINT ( 'NONE', #208 ) ;
#68 = DIRECTION ( 'NONE',  ( 1.000000000000000000, 0.000000000000000000, -0.000000000000000000 ) ) ;
#69 = CARTESIAN_POINT ( 'NONE',  ( 0.000000000000000000, 0.000000000000000000, 207.0000000000000284 ) ) ;
#70 = APPROVAL_STATUS ( 'not_yet_approved' ) ;
#71 = DATE_AND_TIME ( #212, #200 ) ;
#72 = PERSON_AND_ORGANIZATION ( #148, #13 ) ;
#73 = APPROVAL_PERSON_ORGANIZATION ( #195, #76, #240 ) ;
#74 = CALENDAR_DATE ( 2022, 7, 7 ) ;
#75 = DATE_AND_TIME ( #74, #34 ) ;
#76 = APPROVAL ( #19, 'NEURÈENÝ' ) ;
#77 = APPROVAL_PERSON_ORGANIZATION ( #235, #20, #36 ) ;
#78 = LOCAL_TIME ( 19, 5, 16.00000000000000000, #175 ) ;
#79 = UNCERTAINTY_MEASURE_WITH_UNIT (LENGTH_MEASURE( 1.000000000000000082E-05 ), #164, 'distance_accuracy_value', 'NONE');
#80 = CIRCLE ( 'NONE', #16, 9.000000000000001776 ) ;
#81 = EDGE_LOOP ( 'NONE', ( #4, #214 ) ) ;
#82 = CARTESIAN_POINT ( 'NONE',  ( 12.00000000000000178, 1.469576158976824144E-15, 7.000000000000000000 ) ) ;
#83 = EDGE_CURVE ( 'NONE', #56, #157, #188, .T. ) ;
#84 = AXIS2_PLACEMENT_3D ( 'NONE', #43, #62, #61 ) ;
#85 = DIRECTION ( 'NONE',  ( -0.000000000000000000, -0.000000000000000000, -1.000000000000000000 ) ) ;
#86 = PRODUCT_DEFINITION_FORMATION_WITH_SPECIFIED_SOURCE ( 'LIBOVOLNÝ', '', #6, .NOT_KNOWN. ) ;
#87 = DIRECTION ( 'NONE',  ( 0.000000000000000000, 0.000000000000000000, 1.000000000000000000 ) ) ;
#88 = AXIS2_PLACEMENT_3D ( 'NONE', #69, #153, #108 ) ;
#89 = CARTESIAN_POINT ( 'NONE',  ( 12.00000000000000178, 1.469576158976824144E-15, 7.000000000000000000 ) ) ;
#90 = FACE_OUTER_BOUND ( 'NONE', #178, .T. ) ;
#91 = DIRECTION ( 'NONE',  ( 1.000000000000000000, 0.000000000000000000, -0.000000000000000000 ) ) ;
#92 = ORIENTED_EDGE ( 'NONE', *, *, #174, .T. ) ;
#93 = CYLINDRICAL_SURFACE ( 'NONE', #88, 9.000000000000001776 ) ;
#94 = ADVANCED_FACE ( 'NONE', ( #110 ), #228, .T. ) ;
#95 = APPROVAL_DATE_TIME ( #97, #76 ) ;
#96 = EDGE_CURVE ( 'NONE', #67, #196, #109, .T. ) ;
#97 = DATE_AND_TIME ( #55, #219 ) ;
#98 = AXIS2_PLACEMENT_3D ( 'NONE', #226, #64, #205 ) ;
#99 = CC_DESIGN_PERSON_AND_ORGANIZATION_ASSIGNMENT ( #57, #139, ( #35 ) ) ;
#100 = EDGE_LOOP ( 'NONE', ( #33, #116, #135, #171 ) ) ;
#101 = CC_DESIGN_PERSON_AND_ORGANIZATION_ASSIGNMENT ( #237, #193, ( #152 ) ) ;
#102 = CYLINDRICAL_SURFACE ( 'NONE', #137, 9.000000000000001776 ) ;
#103 = CARTESIAN_POINT ( 'NONE',  ( 0.000000000000000000, 0.000000000000000000, 7.000000000000000000 ) ) ;
#104 = EDGE_CURVE ( 'NONE', #56, #239, #210, .T. ) ;
#105 = FACE_BOUND ( 'NONE', #121, .T. ) ;
#106 = CARTESIAN_POINT ( 'NONE',  ( -9.000000000000001776, 0.000000000000000000, 207.0000000000000284 ) ) ;
#107 = CC_DESIGN_APPROVAL ( #20, ( #86 ) ) ;
#108 = DIRECTION ( 'NONE',  ( -1.000000000000000000, 0.000000000000000000, 0.000000000000000000 ) ) ;
#109 = CIRCLE ( 'NONE', #98, 12.00000000000000178 ) ;
#110 = FACE_OUTER_BOUND ( 'NONE', #81, .T. ) ;
#111 = COORDINATED_UNIVERSAL_TIME_OFFSET ( 1, 0, .AHEAD. ) ;
#112 = PERSON_AND_ORGANIZATION ( #148, #13 ) ;
#113 = DATE_AND_TIME ( #238, #78 ) ;
#114 = PERSON_AND_ORGANIZATION_ROLE ( 'design_supplier' ) ;
#115 = PERSON_AND_ORGANIZATION_ROLE ( 'creator' ) ;
#116 = ORIENTED_EDGE ( 'NONE', *, *, #104, .F. ) ;
#117 = PRODUCT_RELATED_PRODUCT_CATEGORY ( 'detail', '', ( #6 ) ) ;
#118 = AXIS2_PLACEMENT_3D ( 'NONE', #151, #185, #122 ) ;
#119 = AXIS2_PLACEMENT_3D ( 'NONE', #9, #87, #246 ) ;
#120 = CARTESIAN_POINT ( 'NONE',  ( 12.00000000000000178, 1.469576158976824144E-15, 0.000000000000000000 ) ) ;
#121 = EDGE_LOOP ( 'NONE', ( #173, #63 ) ) ;
#122 = DIRECTION ( 'NONE',  ( 1.000000000000000000, 0.000000000000000000, 0.000000000000000000 ) ) ;
#123 = DIRECTION ( 'NONE',  ( -1.000000000000000000, 0.000000000000000000, 0.000000000000000000 ) ) ;
#124 = ADVANCED_FACE ( 'NONE', ( #105, #167 ), #15, .T. ) ;
#125 = DIRECTION ( 'NONE',  ( 1.000000000000000000, 0.000000000000000000, 0.000000000000000000 ) ) ;
#126 = VERTEX_POINT ( 'NONE', #128 ) ;
#127 = EDGE_CURVE ( 'NONE', #213, #126, #136, .T. ) ;
#128 = CARTESIAN_POINT ( 'NONE',  ( -12.00000000000000178, 0.000000000000000000, 0.000000000000000000 ) ) ;
#129 = CC_DESIGN_SECURITY_CLASSIFICATION ( #152, ( #86 ) ) ;
#130 = CYLINDRICAL_SURFACE ( 'NONE', #194, 12.00000000000000178 ) ;
#131 = AXIS2_PLACEMENT_3D ( 'NONE', #172, #150, #91 ) ;
#132 = DIRECTION ( 'NONE',  ( 1.000000000000000000, 0.000000000000000000, -0.000000000000000000 ) ) ;
#133 = DATE_TIME_ROLE ( 'creation_date' ) ;
#134 = APPROVAL_STATUS ( 'not_yet_approved' ) ;
#135 = ORIENTED_EDGE ( 'NONE', *, *, #83, .T. ) ;
#136 = CIRCLE ( 'NONE', #54, 12.00000000000000178 ) ;
#137 = AXIS2_PLACEMENT_3D ( 'NONE', #28, #44, #123 ) ;
#138 = ORIENTED_EDGE ( 'NONE', *, *, #187, .T. ) ;
#139 = PERSON_AND_ORGANIZATION_ROLE ( 'creator' ) ;
#140 = ADVANCED_FACE ( 'NONE', ( #31 ), #190, .F. ) ;
#141 = CARTESIAN_POINT ( 'NONE',  ( 0.000000000000000000, 0.000000000000000000, 7.000000000000000000 ) ) ;
#142 = PRODUCT_DEFINITION_SHAPE ( 'NONE', 'NONE',  #35 ) ;
#143 = APPLICATION_PROTOCOL_DEFINITION ( 'international standard', 'config_control_design', 1994, #234 ) ;
#144 = CARTESIAN_POINT ( 'NONE',  ( 9.000000000000001776, 1.102182119232617911E-15, 207.0000000000000284 ) ) ;
#145 = CIRCLE ( 'NONE', #84, 12.00000000000000178 ) ;
#146 = DIRECTION ( 'NONE',  ( -0.000000000000000000, -0.000000000000000000, -1.000000000000000000 ) ) ;
#147 = ORIENTED_EDGE ( 'NONE', *, *, #96, .T. ) ;
#148 = PERSON ( 'NEURÈENÝ', 'NEURÈENÝ', 'NEURÈENÝ', ('NEURÈENÝ'), ('NEURÈENÝ'), ('NEURÈENÝ') ) ;
#149 = EDGE_CURVE ( 'NONE', #39, #157, #233, .T. ) ;
#150 = DIRECTION ( 'NONE',  ( 0.000000000000000000, 0.000000000000000000, 1.000000000000000000 ) ) ;
#151 = CARTESIAN_POINT ( 'NONE',  ( 0.000000000000000000, 0.000000000000000000, 7.000000000000000000 ) ) ;
#152 = SECURITY_CLASSIFICATION ( '', '', #180 ) ;
#153 = DIRECTION ( 'NONE',  ( -0.000000000000000000, -0.000000000000000000, -1.000000000000000000 ) ) ;
#154 = CALENDAR_DATE ( 2022, 7, 7 ) ;
#155 = CC_DESIGN_PERSON_AND_ORGANIZATION_ASSIGNMENT ( #179, #176, ( #6 ) ) ;
#156 = PERSON_AND_ORGANIZATION ( #148, #13 ) ;
#157 = VERTEX_POINT ( 'NONE', #183 ) ;
#158 = COORDINATED_UNIVERSAL_TIME_OFFSET ( 1, 0, .AHEAD. ) ;
#159 = CC_DESIGN_DATE_AND_TIME_ASSIGNMENT ( #113, #21, ( #152 ) ) ;
#160 = ADVANCED_BREP_SHAPE_REPRESENTATION ( 'fdf6', ( #191, #119 ), #22 ) ;
#161 = DESIGN_CONTEXT ( 'detailed design', #247, 'design' ) ;
#162 = AXIS2_PLACEMENT_3D ( 'NONE', #217, #7, #225 ) ;
#163 = CARTESIAN_POINT ( 'NONE',  ( -12.00000000000000178, 0.000000000000000000, 7.000000000000000000 ) ) ;
#164 =( LENGTH_UNIT ( ) NAMED_UNIT ( * ) SI_UNIT ( .MILLI., .METRE. ) );
#165 = CC_DESIGN_APPROVAL ( #42, ( #35 ) ) ;
#166 = DIRECTION ( 'NONE',  ( 0.000000000000000000, 0.000000000000000000, 1.000000000000000000 ) ) ;
#167 = FACE_OUTER_BOUND ( 'NONE', #252, .T. ) ;
#168 = CC_DESIGN_PERSON_AND_ORGANIZATION_ASSIGNMENT ( #112, #114, ( #86 ) ) ;
#169 = CC_DESIGN_APPROVAL ( #76, ( #152 ) ) ;
#170 = CARTESIAN_POINT ( 'NONE',  ( 0.000000000000000000, 0.000000000000000000, 0.000000000000000000 ) ) ;
#171 = ORIENTED_EDGE ( 'NONE', *, *, #227, .T. ) ;
#172 = CARTESIAN_POINT ( 'NONE',  ( 0.000000000000000000, 0.000000000000000000, 7.000000000000000000 ) ) ;
#173 = ORIENTED_EDGE ( 'NONE', *, *, #227, .F. ) ;
#174 = EDGE_CURVE ( 'NONE', #239, #39, #199, .T. ) ;
#175 = COORDINATED_UNIVERSAL_TIME_OFFSET ( 1, 0, .AHEAD. ) ;
#176 = PERSON_AND_ORGANIZATION_ROLE ( 'design_owner' ) ;
#177 = ORIENTED_EDGE ( 'NONE', *, *, #230, .T. ) ;
#178 = EDGE_LOOP ( 'NONE', ( #181, #92, #38, #30 ) ) ;
#179 = PERSON_AND_ORGANIZATION ( #148, #13 ) ;
#180 = SECURITY_CLASSIFICATION_LEVEL ( 'unclassified' ) ;
#181 = ORIENTED_EDGE ( 'NONE', *, *, #46, .F. ) ;
#182 = ORIENTED_EDGE ( 'NONE', *, *, #127, .F. ) ;
#183 = CARTESIAN_POINT ( 'NONE',  ( -9.000000000000001776, 0.000000000000000000, 7.000000000000000000 ) ) ;
#184 = AXIS2_PLACEMENT_3D ( 'NONE', #103, #166, #8 ) ;
#185 = DIRECTION ( 'NONE',  ( 0.000000000000000000, 0.000000000000000000, 1.000000000000000000 ) ) ;
#186 = LINE ( 'NONE', #163, #65 ) ;
#187 = EDGE_CURVE ( 'NONE', #126, #213, #145, .T. ) ;
#188 = LINE ( 'NONE', #106, #59 ) ;
#189 = DIRECTION ( 'NONE',  ( 0.000000000000000000, 0.000000000000000000, 1.000000000000000000 ) ) ;
#190 = PLANE ( 'NONE',  #50 ) ;
#191 = MANIFOLD_SOLID_BREP ( 'Pøidat vysunutím3', #222 ) ;
#192 = CARTESIAN_POINT ( 'NONE',  ( 0.000000000000000000, 0.000000000000000000, 207.0000000000000284 ) ) ;
#193 = PERSON_AND_ORGANIZATION_ROLE ( 'classification_officer' ) ;
#194 = AXIS2_PLACEMENT_3D ( 'NONE', #48, #18, #206 ) ;
#195 = PERSON_AND_ORGANIZATION ( #148, #13 ) ;
#196 = VERTEX_POINT ( 'NONE', #82 ) ;
#197 = COORDINATED_UNIVERSAL_TIME_OFFSET ( 1, 0, .AHEAD. ) ;
#198 = DIRECTION ( 'NONE',  ( -0.000000000000000000, -0.000000000000000000, -1.000000000000000000 ) ) ;
#199 = LINE ( 'NONE', #25, #11 ) ;
#200 = LOCAL_TIME ( 19, 5, 16.00000000000000000, #111 ) ;
#201 = LINE ( 'NONE', #89, #5 ) ;
#202 = EDGE_LOOP ( 'NONE', ( #244, #182 ) ) ;
#203 = DIRECTION ( 'NONE',  ( -0.000000000000000000, -0.000000000000000000, -1.000000000000000000 ) ) ;
#204 = CC_DESIGN_DATE_AND_TIME_ASSIGNMENT ( #75, #133, ( #35 ) ) ;
#205 = DIRECTION ( 'NONE',  ( 1.000000000000000000, 0.000000000000000000, 0.000000000000000000 ) ) ;
#206 = DIRECTION ( 'NONE',  ( -1.000000000000000000, 0.000000000000000000, 0.000000000000000000 ) ) ;
#207 = DIRECTION ( 'NONE',  ( 1.000000000000000000, 0.000000000000000000, 0.000000000000000000 ) ) ;
#208 = CARTESIAN_POINT ( 'NONE',  ( -12.00000000000000178, 0.000000000000000000, 7.000000000000000000 ) ) ;
#209 = CC_DESIGN_PERSON_AND_ORGANIZATION_ASSIGNMENT ( #156, #115, ( #86 ) ) ;
#210 = CIRCLE ( 'NONE', #250, 9.000000000000001776 ) ;
#211 = DATE_AND_TIME ( #154, #27 ) ;
#212 = CALENDAR_DATE ( 2022, 7, 7 ) ;
#213 = VERTEX_POINT ( 'NONE', #120 ) ;
#214 = ORIENTED_EDGE ( 'NONE', *, *, #46, .T. ) ;
#215 = COORDINATED_UNIVERSAL_TIME_OFFSET ( 1, 0, .AHEAD. ) ;
#216 = EDGE_CURVE ( 'NONE', #196, #67, #221, .T. ) ;
#217 = CARTESIAN_POINT ( 'NONE',  ( 0.000000000000000000, 0.000000000000000000, 7.000000000000000000 ) ) ;
#218 = ADVANCED_FACE ( 'NONE', ( #248 ), #102, .T. ) ;
#219 = LOCAL_TIME ( 19, 5, 16.00000000000000000, #197 ) ;
#220 = CYLINDRICAL_SURFACE ( 'NONE', #24, 12.00000000000000178 ) ;
#221 = CIRCLE ( 'NONE', #162, 12.00000000000000178 ) ;
#222 = CLOSED_SHELL ( 'NONE', ( #58, #10, #236, #124, #140, #218, #94 ) ) ;
#223 = ORIENTED_EDGE ( 'NONE', *, *, #216, .T. ) ;
#224 =( NAMED_UNIT ( * ) SI_UNIT ( $, .STERADIAN. ) SOLID_ANGLE_UNIT ( ) );
#225 = DIRECTION ( 'NONE',  ( 1.000000000000000000, 0.000000000000000000, 0.000000000000000000 ) ) ;
#226 = CARTESIAN_POINT ( 'NONE',  ( 0.000000000000000000, 0.000000000000000000, 7.000000000000000000 ) ) ;
#227 = EDGE_CURVE ( 'NONE', #157, #39, #52, .T. ) ;
#228 = PLANE ( 'NONE',  #32 ) ;
#229 = DIRECTION ( 'NONE',  ( 1.000000000000000000, 0.000000000000000000, 0.000000000000000000 ) ) ;
#230 = EDGE_CURVE ( 'NONE', #196, #213, #201, .T. ) ;
#231 = FACE_OUTER_BOUND ( 'NONE', #249, .T. ) ;
#232 = CARTESIAN_POINT ( 'NONE',  ( 0.000000000000000000, 0.000000000000000000, 207.0000000000000284 ) ) ;
#233 = CIRCLE ( 'NONE', #118, 9.000000000000001776 ) ;
#234 = APPLICATION_CONTEXT ( 'configuration controlled 3d designs of mechanical parts and assemblies' ) ;
#235 = PERSON_AND_ORGANIZATION ( #148, #13 ) ;
#236 = ADVANCED_FACE ( 'NONE', ( #243 ), #220, .T. ) ;
#237 = PERSON_AND_ORGANIZATION ( #148, #13 ) ;
#238 = CALENDAR_DATE ( 2022, 7, 7 ) ;
#239 = VERTEX_POINT ( 'NONE', #144 ) ;
#240 = APPROVAL_ROLE ( '' ) ;
#241 = ORIENTED_EDGE ( 'NONE', *, *, #242, .T. ) ;
#242 = EDGE_CURVE ( 'NONE', #67, #126, #186, .T. ) ;
#243 = FACE_OUTER_BOUND ( 'NONE', #60, .T. ) ;
#244 = ORIENTED_EDGE ( 'NONE', *, *, #187, .F. ) ;
#245 = ORIENTED_EDGE ( 'NONE', *, *, #127, .T. ) ;
#246 = DIRECTION ( 'NONE',  ( 1.000000000000000000, 0.000000000000000000, 0.000000000000000000 ) ) ;
#247 = APPLICATION_CONTEXT ( 'configuration controlled 3d designs of mechanical parts and assemblies' ) ;
#248 = FACE_OUTER_BOUND ( 'NONE', #100, .T. ) ;
#249 = EDGE_LOOP ( 'NONE', ( #2, #177, #245, #26 ) ) ;
#250 = AXIS2_PLACEMENT_3D ( 'NONE', #192, #189, #229 ) ;
#251 = DIRECTION ( 'NONE',  ( 0.000000000000000000, 0.000000000000000000, 1.000000000000000000 ) ) ;
#252 = EDGE_LOOP ( 'NONE', ( #147, #223 ) ) ;
#253 = DIRECTION ( 'NONE',  ( 0.000000000000000000, 0.000000000000000000, 1.000000000000000000 ) ) ;
#254 = CARTESIAN_POINT ( 'NONE',  ( 9.000000000000001776, 1.102182119232617911E-15, 7.000000000000000000 ) ) ;
#255 = SHAPE_DEFINITION_REPRESENTATION ( #142, #160 ) ;
ENDSEC;
END-ISO-10303-21;
