ISO-10303-21;
HEADER;
FILE_DESCRIPTION (( 'STEP AP203' ),
    '1' );
FILE_NAME ('9925.STEP',
    '2022-07-07T17:03:47',
    ( '' ),
    ( '' ),
    'SwSTEP 2.0',
    'SolidWorks 2019',
    '' );
FILE_SCHEMA (( 'CONFIG_CONTROL_DESIGN' ));
ENDSEC;

DATA;
#1 = DATE_TIME_ROLE ( 'creation_date' ) ;
#2 = APPROVAL ( #96, 'NEURÈENÝ' ) ;
#3 = ORIENTED_EDGE ( 'NONE', *, *, #214, .T. ) ;
#4 = APPROVAL_DATE_TIME ( #42, #2 ) ;
#5 = ORIENTED_EDGE ( 'NONE', *, *, #205, .T. ) ;
#6 = PERSON_AND_ORGANIZATION ( #79, #150 ) ;
#7 = ADVANCED_FACE ( 'NONE', ( #98 ), #184, .T. ) ;
#8 = ADVANCED_FACE ( 'NONE', ( #94 ), #153, .F. ) ;
#9 = ORIENTED_EDGE ( 'NONE', *, *, #128, .F. ) ;
#10 = LINE ( 'NONE', #251, #124 ) ;
#11 = DIRECTION ( 'NONE',  ( -0.000000000000000000, -0.000000000000000000, -1.000000000000000000 ) ) ;
#12 = APPROVAL ( #144, 'NEURÈENÝ' ) ;
#13 = DIRECTION ( 'NONE',  ( 0.000000000000000000, 0.000000000000000000, 1.000000000000000000 ) ) ;
#14 = EDGE_LOOP ( 'NONE', ( #116, #244, #74, #238 ) ) ;
#15 = DIRECTION ( 'NONE',  ( 0.000000000000000000, 0.000000000000000000, 1.000000000000000000 ) ) ;
#16 = FACE_OUTER_BOUND ( 'NONE', #86, .T. ) ;
#17 = DIRECTION ( 'NONE',  ( 1.000000000000000000, 0.000000000000000000, 0.000000000000000000 ) ) ;
#18 = ADVANCED_FACE ( 'NONE', ( #231 ), #176, .T. ) ;
#19 = ORIENTED_EDGE ( 'NONE', *, *, #180, .T. ) ;
#20 = AXIS2_PLACEMENT_3D ( 'NONE', #132, #39, #155 ) ;
#21 = SHAPE_DEFINITION_REPRESENTATION ( #122, #230 ) ;
#22 = EDGE_LOOP ( 'NONE', ( #181, #120, #66, #100 ) ) ;
#23 = SECURITY_CLASSIFICATION_LEVEL ( 'unclassified' ) ;
#24 = VERTEX_POINT ( 'NONE', #209 ) ;
#25 = APPROVAL_PERSON_ORGANIZATION ( #6, #12, #83 ) ;
#26 = COORDINATED_UNIVERSAL_TIME_OFFSET ( 1, 0, .AHEAD. ) ;
#27 = ORIENTED_EDGE ( 'NONE', *, *, #175, .T. ) ;
#28 = EDGE_CURVE ( 'NONE', #149, #201, #102, .T. ) ;
#29 = DIRECTION ( 'NONE',  ( -1.000000000000000000, 0.000000000000000000, 0.000000000000000000 ) ) ;
#30 = AXIS2_PLACEMENT_3D ( 'NONE', #255, #13, #91 ) ;
#31 = CARTESIAN_POINT ( 'NONE',  ( 0.000000000000000000, 0.000000000000000000, 0.000000000000000000 ) ) ;
#32 = DIRECTION ( 'NONE',  ( -1.000000000000000000, 0.000000000000000000, 0.000000000000000000 ) ) ;
#33 =( NAMED_UNIT ( * ) PLANE_ANGLE_UNIT ( ) SI_UNIT ( $, .RADIAN. ) );
#34 = APPROVAL ( #172, 'NEURÈENÝ' ) ;
#35 = DIRECTION ( 'NONE',  ( -0.000000000000000000, -0.000000000000000000, -1.000000000000000000 ) ) ;
#36 =( LENGTH_UNIT ( ) NAMED_UNIT ( * ) SI_UNIT ( .MILLI., .METRE. ) );
#37 = LOCAL_TIME ( 19, 3, 47.00000000000000000, #202 ) ;
#38 = CARTESIAN_POINT ( 'NONE',  ( -10.00000000000000178, 0.000000000000000000, 258.0000000000000000 ) ) ;
#39 = DIRECTION ( 'NONE',  ( 0.000000000000000000, 0.000000000000000000, 1.000000000000000000 ) ) ;
#40 = COORDINATED_UNIVERSAL_TIME_OFFSET ( 1, 0, .AHEAD. ) ;
#41 = AXIS2_PLACEMENT_3D ( 'NONE', #31, #107, #196 ) ;
#42 = DATE_AND_TIME ( #219, #95 ) ;
#43 = AXIS2_PLACEMENT_3D ( 'NONE', #179, #217, #232 ) ;
#44 = APPLICATION_CONTEXT ( 'configuration controlled 3d designs of mechanical parts and assemblies' ) ;
#45 = PRODUCT ( '9925', '9925', '', ( #208 ) ) ;
#46 = CC_DESIGN_PERSON_AND_ORGANIZATION_ASSIGNMENT ( #252, #109, ( #45 ) ) ;
#47 = ORIENTED_EDGE ( 'NONE', *, *, #214, .F. ) ;
#48 = APPROVAL_PERSON_ORGANIZATION ( #117, #2, #140 ) ;
#49 = EDGE_CURVE ( 'NONE', #143, #201, #54, .T. ) ;
#50 = DIRECTION ( 'NONE',  ( 1.000000000000000000, 0.000000000000000000, 0.000000000000000000 ) ) ;
#51 = AXIS2_PLACEMENT_3D ( 'NONE', #55, #111, #248 ) ;
#52 = DIRECTION ( 'NONE',  ( -1.000000000000000000, 0.000000000000000000, 0.000000000000000000 ) ) ;
#53 = APPROVAL_ROLE ( '' ) ;
#54 = LINE ( 'NONE', #38, #141 ) ;
#55 = CARTESIAN_POINT ( 'NONE',  ( 0.000000000000000000, 0.000000000000000000, 0.000000000000000000 ) ) ;
#56 = ORIENTED_EDGE ( 'NONE', *, *, #28, .F. ) ;
#57 = VECTOR ( 'NONE', #35, 1000.000000000000000 ) ;
#58 = ORIENTED_EDGE ( 'NONE', *, *, #222, .T. ) ;
#59 = DIRECTION ( 'NONE',  ( 0.000000000000000000, 0.000000000000000000, 1.000000000000000000 ) ) ;
#60 = CALENDAR_DATE ( 2022, 7, 7 ) ;
#61 = DIRECTION ( 'NONE',  ( 0.000000000000000000, 0.000000000000000000, 1.000000000000000000 ) ) ;
#62 = DIRECTION ( 'NONE',  ( 0.000000000000000000, 0.000000000000000000, 1.000000000000000000 ) ) ;
#63 = PERSON_AND_ORGANIZATION_ROLE ( 'design_supplier' ) ;
#64 = PRODUCT_DEFINITION ( 'NEZNÁMÝ', '', #226, #119 ) ;
#65 = ORIENTED_EDGE ( 'NONE', *, *, #245, .F. ) ;
#66 = ORIENTED_EDGE ( 'NONE', *, *, #123, .T. ) ;
#67 = CIRCLE ( 'NONE', #20, 10.00000000000000178 ) ;
#68 = EDGE_LOOP ( 'NONE', ( #65, #19, #78, #126 ) ) ;
#69 = ADVANCED_FACE ( 'NONE', ( #211 ), #75, .T. ) ;
#70 = SECURITY_CLASSIFICATION ( '', '', #23 ) ;
#71 = FACE_BOUND ( 'NONE', #145, .T. ) ;
#72 = APPLICATION_PROTOCOL_DEFINITION ( 'international standard', 'config_control_design', 1994, #163 ) ;
#73 = CARTESIAN_POINT ( 'NONE',  ( 0.000000000000000000, 0.000000000000000000, 258.0000000000000000 ) ) ;
#74 = ORIENTED_EDGE ( 'NONE', *, *, #224, .T. ) ;
#75 = PLANE ( 'NONE',  #127 ) ;
#76 = PERSON_AND_ORGANIZATION ( #79, #150 ) ;
#77 = DIRECTION ( 'NONE',  ( 1.000000000000000000, 0.000000000000000000, -0.000000000000000000 ) ) ;
#78 = ORIENTED_EDGE ( 'NONE', *, *, #28, .T. ) ;
#79 = PERSON ( 'NEURÈENÝ', 'NEURÈENÝ', 'NEURÈENÝ', ('NEURÈENÝ'), ('NEURÈENÝ'), ('NEURÈENÝ') ) ;
#80 = EDGE_CURVE ( 'NONE', #134, #82, #129, .T. ) ;
#81 = CALENDAR_DATE ( 2022, 7, 7 ) ;
#82 = VERTEX_POINT ( 'NONE', #249 ) ;
#83 = APPROVAL_ROLE ( '' ) ;
#84 = PERSON_AND_ORGANIZATION_ROLE ( 'creator' ) ;
#85 = CIRCLE ( 'NONE', #41, 13.00000000000000178 ) ;
#86 = EDGE_LOOP ( 'NONE', ( #58, #5 ) ) ;
#87 = DIRECTION ( 'NONE',  ( 0.000000000000000000, 0.000000000000000000, 1.000000000000000000 ) ) ;
#88 = APPLICATION_PROTOCOL_DEFINITION ( 'international standard', 'config_control_design', 1994, #44 ) ;
#89 = AXIS2_PLACEMENT_3D ( 'NONE', #233, #137, #50 ) ;
#90 = DIRECTION ( 'NONE',  ( -0.000000000000000000, -0.000000000000000000, -1.000000000000000000 ) ) ;
#91 = DIRECTION ( 'NONE',  ( 1.000000000000000000, 0.000000000000000000, 0.000000000000000000 ) ) ;
#92 = VERTEX_POINT ( 'NONE', #197 ) ;
#93 = DIRECTION ( 'NONE',  ( -0.000000000000000000, -0.000000000000000000, -1.000000000000000000 ) ) ;
#94 = FACE_OUTER_BOUND ( 'NONE', #112, .T. ) ;
#95 = LOCAL_TIME ( 19, 3, 47.00000000000000000, #26 ) ;
#96 = APPROVAL_STATUS ( 'not_yet_approved' ) ;
#97 = CC_DESIGN_DATE_AND_TIME_ASSIGNMENT ( #165, #240, ( #70 ) ) ;
#98 = FACE_OUTER_BOUND ( 'NONE', #14, .T. ) ;
#99 = CALENDAR_DATE ( 2022, 7, 7 ) ;
#100 = ORIENTED_EDGE ( 'NONE', *, *, #128, .T. ) ;
#101 = PERSON_AND_ORGANIZATION ( #79, #150 ) ;
#102 = CIRCLE ( 'NONE', #89, 10.00000000000000178 ) ;
#103 = CC_DESIGN_PERSON_AND_ORGANIZATION_ASSIGNMENT ( #168, #63, ( #226 ) ) ;
#104 = CC_DESIGN_SECURITY_CLASSIFICATION ( #70, ( #226 ) ) ;
#105 = ORIENTED_EDGE ( 'NONE', *, *, #49, .T. ) ;
#106 = AXIS2_PLACEMENT_3D ( 'NONE', #157, #15, #159 ) ;
#107 = DIRECTION ( 'NONE',  ( 0.000000000000000000, 0.000000000000000000, 1.000000000000000000 ) ) ;
#108 = CARTESIAN_POINT ( 'NONE',  ( 13.00000000000000178, 1.592040838891559293E-15, 8.000000000000000000 ) ) ;
#109 = PERSON_AND_ORGANIZATION_ROLE ( 'design_owner' ) ;
#110 = CARTESIAN_POINT ( 'NONE',  ( -10.00000000000000178, 0.000000000000000000, 258.0000000000000000 ) ) ;
#111 = DIRECTION ( 'NONE',  ( 0.000000000000000000, 0.000000000000000000, 1.000000000000000000 ) ) ;
#112 = EDGE_LOOP ( 'NONE', ( #9, #241 ) ) ;
#113 = CARTESIAN_POINT ( 'NONE',  ( 0.000000000000000000, 0.000000000000000000, 258.0000000000000000 ) ) ;
#114 = DIRECTION ( 'NONE',  ( -1.000000000000000000, 0.000000000000000000, 0.000000000000000000 ) ) ;
#115 = VECTOR ( 'NONE', #11, 1000.000000000000000 ) ;
#116 = ORIENTED_EDGE ( 'NONE', *, *, #205, .F. ) ;
#117 = PERSON_AND_ORGANIZATION ( #79, #150 ) ;
#118 = EDGE_LOOP ( 'NONE', ( #206, #151, #105, #3 ) ) ;
#119 = DESIGN_CONTEXT ( 'detailed design', #44, 'design' ) ;
#120 = ORIENTED_EDGE ( 'NONE', *, *, #222, .F. ) ;
#121 = DIRECTION ( 'NONE',  ( -0.000000000000000000, -0.000000000000000000, -1.000000000000000000 ) ) ;
#122 = PRODUCT_DEFINITION_SHAPE ( 'NONE', 'NONE',  #64 ) ;
#123 = EDGE_CURVE ( 'NONE', #24, #225, #10, .T. ) ;
#124 = VECTOR ( 'NONE', #213, 1000.000000000000000 ) ;
#125 = ADVANCED_FACE ( 'NONE', ( #207 ), #227, .T. ) ;
#126 = ORIENTED_EDGE ( 'NONE', *, *, #49, .F. ) ;
#127 = AXIS2_PLACEMENT_3D ( 'NONE', #154, #61, #171 ) ;
#128 = EDGE_CURVE ( 'NONE', #225, #82, #85, .T. ) ;
#129 = LINE ( 'NONE', #108, #57 ) ;
#130 = CIRCLE ( 'NONE', #30, 10.00000000000000178 ) ;
#131 = CARTESIAN_POINT ( 'NONE',  ( 10.00000000000000178, 1.224646799147353454E-15, 258.0000000000000000 ) ) ;
#132 = CARTESIAN_POINT ( 'NONE',  ( 0.000000000000000000, 0.000000000000000000, 8.000000000000000000 ) ) ;
#133 =( NAMED_UNIT ( * ) SI_UNIT ( $, .STERADIAN. ) SOLID_ANGLE_UNIT ( ) );
#134 = VERTEX_POINT ( 'NONE', #135 ) ;
#135 = CARTESIAN_POINT ( 'NONE',  ( 13.00000000000000178, 1.592040838891559293E-15, 8.000000000000000000 ) ) ;
#136 = CARTESIAN_POINT ( 'NONE',  ( 0.000000000000000000, 0.000000000000000000, 0.000000000000000000 ) ) ;
#137 = DIRECTION ( 'NONE',  ( 0.000000000000000000, 0.000000000000000000, 1.000000000000000000 ) ) ;
#138 = CYLINDRICAL_SURFACE ( 'NONE', #188, 13.00000000000000178 ) ;
#139 = CC_DESIGN_PERSON_AND_ORGANIZATION_ASSIGNMENT ( #242, #162, ( #70 ) ) ;
#140 = APPROVAL_ROLE ( '' ) ;
#141 = VECTOR ( 'NONE', #93, 1000.000000000000000 ) ;
#142 = COORDINATED_UNIVERSAL_TIME_OFFSET ( 1, 0, .AHEAD. ) ;
#143 = VERTEX_POINT ( 'NONE', #110 ) ;
#144 = APPROVAL_STATUS ( 'not_yet_approved' ) ;
#145 = EDGE_LOOP ( 'NONE', ( #47, #56 ) ) ;
#146 = CC_DESIGN_PERSON_AND_ORGANIZATION_ASSIGNMENT ( #216, #250, ( #64 ) ) ;
#147 = CIRCLE ( 'NONE', #51, 13.00000000000000178 ) ;
#148 = ADVANCED_FACE ( 'NONE', ( #71, #16 ), #178, .T. ) ;
#149 = VERTEX_POINT ( 'NONE', #173 ) ;
#150 = ORGANIZATION ( 'NEURÈENÝ', 'NEURÈENÝ', '' ) ;
#151 = ORIENTED_EDGE ( 'NONE', *, *, #175, .F. ) ;
#152 = AXIS2_PLACEMENT_3D ( 'NONE', #229, #87, #77 ) ;
#153 = PLANE ( 'NONE',  #152 ) ;
#154 = CARTESIAN_POINT ( 'NONE',  ( 0.000000000000000000, 0.000000000000000000, 258.0000000000000000 ) ) ;
#155 = DIRECTION ( 'NONE',  ( 1.000000000000000000, 0.000000000000000000, 0.000000000000000000 ) ) ;
#156 = AXIS2_PLACEMENT_3D ( 'NONE', #235, #195, #17 ) ;
#157 = CARTESIAN_POINT ( 'NONE',  ( 0.000000000000000000, 0.000000000000000000, 8.000000000000000000 ) ) ;
#158 = FACE_OUTER_BOUND ( 'NONE', #22, .T. ) ;
#159 = DIRECTION ( 'NONE',  ( 1.000000000000000000, 0.000000000000000000, -0.000000000000000000 ) ) ;
#160 = LINE ( 'NONE', #131, #115 ) ;
#161 = CIRCLE ( 'NONE', #43, 13.00000000000000178 ) ;
#162 = PERSON_AND_ORGANIZATION_ROLE ( 'classification_officer' ) ;
#163 = APPLICATION_CONTEXT ( 'configuration controlled 3d designs of mechanical parts and assemblies' ) ;
#164 = CARTESIAN_POINT ( 'NONE',  ( 0.000000000000000000, 0.000000000000000000, 8.000000000000000000 ) ) ;
#165 = DATE_AND_TIME ( #99, #223 ) ;
#166 = CC_DESIGN_APPROVAL ( #2, ( #226 ) ) ;
#167 = CALENDAR_DATE ( 2022, 7, 7 ) ;
#168 = PERSON_AND_ORGANIZATION ( #79, #150 ) ;
#169 = CC_DESIGN_APPROVAL ( #34, ( #64 ) ) ;
#170 = CIRCLE ( 'NONE', #156, 13.00000000000000178 ) ;
#171 = DIRECTION ( 'NONE',  ( 1.000000000000000000, 0.000000000000000000, -0.000000000000000000 ) ) ;
#172 = APPROVAL_STATUS ( 'not_yet_approved' ) ;
#173 = CARTESIAN_POINT ( 'NONE',  ( 10.00000000000000178, 1.224646799147353454E-15, 8.000000000000000000 ) ) ;
#174 = DATE_AND_TIME ( #60, #204 ) ;
#175 = EDGE_CURVE ( 'NONE', #143, #92, #253, .T. ) ;
#176 = CYLINDRICAL_SURFACE ( 'NONE', #246, 10.00000000000000178 ) ;
#177 = DIRECTION ( 'NONE',  ( 1.000000000000000000, 0.000000000000000000, 0.000000000000000000 ) ) ;
#178 = PLANE ( 'NONE',  #106 ) ;
#179 = CARTESIAN_POINT ( 'NONE',  ( 0.000000000000000000, 0.000000000000000000, 8.000000000000000000 ) ) ;
#180 = EDGE_CURVE ( 'NONE', #92, #149, #160, .T. ) ;
#181 = ORIENTED_EDGE ( 'NONE', *, *, #80, .F. ) ;
#182 = APPROVAL_PERSON_ORGANIZATION ( #76, #34, #53 ) ;
#183 = DATE_AND_TIME ( #81, #37 ) ;
#184 = CYLINDRICAL_SURFACE ( 'NONE', #218, 13.00000000000000178 ) ;
#185 = PRODUCT_RELATED_PRODUCT_CATEGORY ( 'detail', '', ( #45 ) ) ;
#186 = APPROVAL_DATE_TIME ( #200, #12 ) ;
#187 = ORIENTED_EDGE ( 'NONE', *, *, #245, .T. ) ;
#188 = AXIS2_PLACEMENT_3D ( 'NONE', #198, #212, #114 ) ;
#189 = AXIS2_PLACEMENT_3D ( 'NONE', #136, #62, #177 ) ;
#190 = CC_DESIGN_PERSON_AND_ORGANIZATION_ASSIGNMENT ( #101, #84, ( #226 ) ) ;
#191 = MANIFOLD_SOLID_BREP ( 'Pøidat vysunutím3', #239 ) ;
#192 = DIRECTION ( 'NONE',  ( 1.000000000000000000, 0.000000000000000000, 0.000000000000000000 ) ) ;
#193 = CARTESIAN_POINT ( 'NONE',  ( -13.00000000000000178, 0.000000000000000000, 0.000000000000000000 ) ) ;
#194 = CARTESIAN_POINT ( 'NONE',  ( 0.000000000000000000, 0.000000000000000000, 258.0000000000000000 ) ) ;
#195 = DIRECTION ( 'NONE',  ( 0.000000000000000000, 0.000000000000000000, 1.000000000000000000 ) ) ;
#196 = DIRECTION ( 'NONE',  ( 1.000000000000000000, 0.000000000000000000, 0.000000000000000000 ) ) ;
#197 = CARTESIAN_POINT ( 'NONE',  ( 10.00000000000000178, 1.224646799147353454E-15, 258.0000000000000000 ) ) ;
#198 = CARTESIAN_POINT ( 'NONE',  ( 0.000000000000000000, 0.000000000000000000, 8.000000000000000000 ) ) ;
#199 = AXIS2_PLACEMENT_3D ( 'NONE', #73, #59, #192 ) ;
#200 = DATE_AND_TIME ( #167, #243 ) ;
#201 = VERTEX_POINT ( 'NONE', #254 ) ;
#202 = COORDINATED_UNIVERSAL_TIME_OFFSET ( 1, 0, .AHEAD. ) ;
#203 = AXIS2_PLACEMENT_3D ( 'NONE', #194, #247, #52 ) ;
#204 = LOCAL_TIME ( 19, 3, 47.00000000000000000, #234 ) ;
#205 = EDGE_CURVE ( 'NONE', #134, #24, #170, .T. ) ;
#206 = ORIENTED_EDGE ( 'NONE', *, *, #180, .F. ) ;
#207 = FACE_OUTER_BOUND ( 'NONE', #118, .T. ) ;
#208 = MECHANICAL_CONTEXT ( 'NONE', #163, 'mechanical' ) ;
#209 = CARTESIAN_POINT ( 'NONE',  ( -13.00000000000000178, 0.000000000000000000, 8.000000000000000000 ) ) ;
#210 = APPROVAL_DATE_TIME ( #174, #34 ) ;
#211 = FACE_OUTER_BOUND ( 'NONE', #220, .T. ) ;
#212 = DIRECTION ( 'NONE',  ( -0.000000000000000000, -0.000000000000000000, -1.000000000000000000 ) ) ;
#213 = DIRECTION ( 'NONE',  ( -0.000000000000000000, -0.000000000000000000, -1.000000000000000000 ) ) ;
#214 = EDGE_CURVE ( 'NONE', #201, #149, #67, .T. ) ;
#215 =( GEOMETRIC_REPRESENTATION_CONTEXT ( 3 ) GLOBAL_UNCERTAINTY_ASSIGNED_CONTEXT ( ( #237 ) ) GLOBAL_UNIT_ASSIGNED_CONTEXT ( ( #36, #33, #133 ) ) REPRESENTATION_CONTEXT ( 'NONE', 'WORKASPACE' ) );
#216 = PERSON_AND_ORGANIZATION ( #79, #150 ) ;
#217 = DIRECTION ( 'NONE',  ( 0.000000000000000000, 0.000000000000000000, 1.000000000000000000 ) ) ;
#218 = AXIS2_PLACEMENT_3D ( 'NONE', #164, #121, #29 ) ;
#219 = CALENDAR_DATE ( 2022, 7, 7 ) ;
#220 = EDGE_LOOP ( 'NONE', ( #27, #187 ) ) ;
#221 = CC_DESIGN_DATE_AND_TIME_ASSIGNMENT ( #183, #1, ( #64 ) ) ;
#222 = EDGE_CURVE ( 'NONE', #24, #134, #161, .T. ) ;
#223 = LOCAL_TIME ( 19, 3, 47.00000000000000000, #40 ) ;
#224 = EDGE_CURVE ( 'NONE', #82, #225, #147, .T. ) ;
#225 = VERTEX_POINT ( 'NONE', #193 ) ;
#226 = PRODUCT_DEFINITION_FORMATION_WITH_SPECIFIED_SOURCE ( 'LIBOVOLNÝ', '', #45, .NOT_KNOWN. ) ;
#227 = CYLINDRICAL_SURFACE ( 'NONE', #203, 10.00000000000000178 ) ;
#228 = ADVANCED_FACE ( 'NONE', ( #158 ), #138, .T. ) ;
#229 = CARTESIAN_POINT ( 'NONE',  ( 0.000000000000000000, 0.000000000000000000, 0.000000000000000000 ) ) ;
#230 = ADVANCED_BREP_SHAPE_REPRESENTATION ( '9925', ( #191, #189 ), #215 ) ;
#231 = FACE_OUTER_BOUND ( 'NONE', #68, .T. ) ;
#232 = DIRECTION ( 'NONE',  ( 1.000000000000000000, 0.000000000000000000, 0.000000000000000000 ) ) ;
#233 = CARTESIAN_POINT ( 'NONE',  ( 0.000000000000000000, 0.000000000000000000, 8.000000000000000000 ) ) ;
#234 = COORDINATED_UNIVERSAL_TIME_OFFSET ( 1, 0, .AHEAD. ) ;
#235 = CARTESIAN_POINT ( 'NONE',  ( 0.000000000000000000, 0.000000000000000000, 8.000000000000000000 ) ) ;
#236 = CC_DESIGN_APPROVAL ( #12, ( #70 ) ) ;
#237 = UNCERTAINTY_MEASURE_WITH_UNIT (LENGTH_MEASURE( 1.000000000000000082E-05 ), #36, 'distance_accuracy_value', 'NONE');
#238 = ORIENTED_EDGE ( 'NONE', *, *, #123, .F. ) ;
#239 = CLOSED_SHELL ( 'NONE', ( #18, #7, #228, #148, #8, #125, #69 ) ) ;
#240 = DATE_TIME_ROLE ( 'classification_date' ) ;
#241 = ORIENTED_EDGE ( 'NONE', *, *, #224, .F. ) ;
#242 = PERSON_AND_ORGANIZATION ( #79, #150 ) ;
#243 = LOCAL_TIME ( 19, 3, 47.00000000000000000, #142 ) ;
#244 = ORIENTED_EDGE ( 'NONE', *, *, #80, .T. ) ;
#245 = EDGE_CURVE ( 'NONE', #92, #143, #130, .T. ) ;
#246 = AXIS2_PLACEMENT_3D ( 'NONE', #113, #90, #32 ) ;
#247 = DIRECTION ( 'NONE',  ( -0.000000000000000000, -0.000000000000000000, -1.000000000000000000 ) ) ;
#248 = DIRECTION ( 'NONE',  ( 1.000000000000000000, 0.000000000000000000, 0.000000000000000000 ) ) ;
#249 = CARTESIAN_POINT ( 'NONE',  ( 13.00000000000000178, 1.592040838891559293E-15, 0.000000000000000000 ) ) ;
#250 = PERSON_AND_ORGANIZATION_ROLE ( 'creator' ) ;
#251 = CARTESIAN_POINT ( 'NONE',  ( -13.00000000000000178, 0.000000000000000000, 8.000000000000000000 ) ) ;
#252 = PERSON_AND_ORGANIZATION ( #79, #150 ) ;
#253 = CIRCLE ( 'NONE', #199, 10.00000000000000178 ) ;
#254 = CARTESIAN_POINT ( 'NONE',  ( -10.00000000000000178, 0.000000000000000000, 8.000000000000000000 ) ) ;
#255 = CARTESIAN_POINT ( 'NONE',  ( 0.000000000000000000, 0.000000000000000000, 258.0000000000000000 ) ) ;
ENDSEC;
END-ISO-10303-21;
