ISO-10303-21;
HEADER;
FILE_DESCRIPTION (( 'STEP AP203' ),
    '1' );
FILE_NAME ('7170.STEP',
    '2023-02-13T16:40:47',
    ( '' ),
    ( '' ),
    'SwSTEP 2.0',
    'SolidWorks 2019',
    '' );
FILE_SCHEMA (( 'CONFIG_CONTROL_DESIGN' ));
ENDSEC;

DATA;
#1 = EDGE_CURVE ( 'NONE', #106, #245, #181, .T. ) ;
#2 = PERSON_AND_ORGANIZATION ( #41, #143 ) ;
#3 = PERSON_AND_ORGANIZATION_ROLE ( 'design_owner' ) ;
#4 = EDGE_CURVE ( 'NONE', #212, #156, #116, .T. ) ;
#5 = DIRECTION ( 'NONE',  ( 1.000000000000000000, 0.000000000000000000, 0.000000000000000000 ) ) ;
#6 = PERSON_AND_ORGANIZATION_ROLE ( 'classification_officer' ) ;
#7 = PRODUCT_DEFINITION_FORMATION_WITH_SPECIFIED_SOURCE ( 'LIBOVOLNÝ', '', #133, .NOT_KNOWN. ) ;
#8 = CALENDAR_DATE ( 2023, 13, 2 ) ;
#9 = DIRECTION ( 'NONE',  ( -0.000000000000000000, -0.000000000000000000, -1.000000000000000000 ) ) ;
#10 = ORIENTED_EDGE ( 'NONE', *, *, #86, .F. ) ;
#11 = CYLINDRICAL_SURFACE ( 'NONE', #201, 1.250000000000000000 ) ;
#12 = APPROVAL ( #29, 'NEURÈENÝ' ) ;
#13 = DIRECTION ( 'NONE',  ( 0.000000000000000000, 0.000000000000000000, 1.000000000000000000 ) ) ;
#14 = ORIENTED_EDGE ( 'NONE', *, *, #4, .T. ) ;
#15 = CARTESIAN_POINT ( 'NONE',  ( 0.000000000000000000, 0.000000000000000000, 125.0000000000000000 ) ) ;
#16 = VERTEX_POINT ( 'NONE', #36 ) ;
#17 = ADVANCED_FACE ( 'NONE', ( #189 ), #109, .F. ) ;
#18 = LINE ( 'NONE', #190, #110 ) ;
#19 = CIRCLE ( 'NONE', #221, 2.500000000000000000 ) ;
#20 = DIRECTION ( 'NONE',  ( -0.000000000000000000, -0.000000000000000000, -1.000000000000000000 ) ) ;
#21 = ADVANCED_FACE ( 'NONE', ( #169 ), #79, .T. ) ;
#22 =( NAMED_UNIT ( * ) SI_UNIT ( $, .STERADIAN. ) SOLID_ANGLE_UNIT ( ) );
#23 = DIRECTION ( 'NONE',  ( 1.000000000000000000, 0.000000000000000000, -0.000000000000000000 ) ) ;
#24 = ADVANCED_BREP_SHAPE_REPRESENTATION ( '7170', ( #61, #135 ), #69 ) ;
#25 = APPROVAL_DATE_TIME ( #47, #12 ) ;
#26 = CALENDAR_DATE ( 2023, 13, 2 ) ;
#27 = CC_DESIGN_APPROVAL ( #12, ( #123 ) ) ;
#28 = DESIGN_CONTEXT ( 'detailed design', #177, 'design' ) ;
#29 = APPROVAL_STATUS ( 'not_yet_approved' ) ;
#30 = CARTESIAN_POINT ( 'NONE',  ( 0.000000000000000000, 0.000000000000000000, 125.0000000000000000 ) ) ;
#31 = AXIS2_PLACEMENT_3D ( 'NONE', #136, #200, #23 ) ;
#32 = EDGE_CURVE ( 'NONE', #212, #59, #77, .T. ) ;
#33 = DIRECTION ( 'NONE',  ( 0.000000000000000000, 0.000000000000000000, 1.000000000000000000 ) ) ;
#34 = EDGE_LOOP ( 'NONE', ( #111, #195 ) ) ;
#35 = DIRECTION ( 'NONE',  ( -0.000000000000000000, -0.000000000000000000, -1.000000000000000000 ) ) ;
#36 = CARTESIAN_POINT ( 'NONE',  ( -1.250000000000000000, 0.000000000000000000, 2.000000000000000000 ) ) ;
#37 = CARTESIAN_POINT ( 'NONE',  ( -1.250000000000000000, 0.000000000000000000, 125.0000000000000000 ) ) ;
#38 = EDGE_LOOP ( 'NONE', ( #52, #227, #251, #40 ) ) ;
#39 = CC_DESIGN_PERSON_AND_ORGANIZATION_ASSIGNMENT ( #141, #3, ( #133 ) ) ;
#40 = ORIENTED_EDGE ( 'NONE', *, *, #214, .F. ) ;
#41 = PERSON ( 'NEURÈENÝ', 'NEURÈENÝ', 'NEURÈENÝ', ('NEURÈENÝ'), ('NEURÈENÝ'), ('NEURÈENÝ') ) ;
#42 = FACE_OUTER_BOUND ( 'NONE', #126, .T. ) ;
#43 = PRODUCT_RELATED_PRODUCT_CATEGORY ( 'detail', '', ( #133 ) ) ;
#44 = DATE_AND_TIME ( #46, #85 ) ;
#45 = VECTOR ( 'NONE', #20, 1000.000000000000000 ) ;
#46 = CALENDAR_DATE ( 2023, 13, 2 ) ;
#47 = DATE_AND_TIME ( #102, #139 ) ;
#48 = AXIS2_PLACEMENT_3D ( 'NONE', #91, #33, #73 ) ;
#49 = DATE_AND_TIME ( #162, #163 ) ;
#50 = DIRECTION ( 'NONE',  ( -1.000000000000000000, 0.000000000000000000, 0.000000000000000000 ) ) ;
#51 = VECTOR ( 'NONE', #194, 1000.000000000000000 ) ;
#52 = ORIENTED_EDGE ( 'NONE', *, *, #1, .F. ) ;
#53 = CYLINDRICAL_SURFACE ( 'NONE', #95, 1.250000000000000000 ) ;
#54 = DIRECTION ( 'NONE',  ( 0.000000000000000000, 0.000000000000000000, 1.000000000000000000 ) ) ;
#55 = CARTESIAN_POINT ( 'NONE',  ( 0.000000000000000000, 0.000000000000000000, 0.000000000000000000 ) ) ;
#56 = ADVANCED_FACE ( 'NONE', ( #98, #42 ), #115, .T. ) ;
#57 = CARTESIAN_POINT ( 'NONE',  ( 0.000000000000000000, 0.000000000000000000, 2.000000000000000000 ) ) ;
#58 = FACE_OUTER_BOUND ( 'NONE', #149, .T. ) ;
#59 = VERTEX_POINT ( 'NONE', #240 ) ;
#60 = AXIS2_PLACEMENT_3D ( 'NONE', #57, #54, #104 ) ;
#61 = MANIFOLD_SOLID_BREP ( 'Pøidat vysunutím3', #142 ) ;
#62 = ORIENTED_EDGE ( 'NONE', *, *, #70, .T. ) ;
#63 = DATE_AND_TIME ( #26, #183 ) ;
#64 = PERSON_AND_ORGANIZATION ( #41, #143 ) ;
#65 = CC_DESIGN_SECURITY_CLASSIFICATION ( #82, ( #7 ) ) ;
#66 = EDGE_CURVE ( 'NONE', #174, #16, #147, .T. ) ;
#67 = PERSON_AND_ORGANIZATION ( #41, #143 ) ;
#68 = AXIS2_PLACEMENT_3D ( 'NONE', #105, #144, #130 ) ;
#69 =( GEOMETRIC_REPRESENTATION_CONTEXT ( 3 ) GLOBAL_UNCERTAINTY_ASSIGNED_CONTEXT ( ( #182 ) ) GLOBAL_UNIT_ASSIGNED_CONTEXT ( ( #218, #113, #22 ) ) REPRESENTATION_CONTEXT ( 'NONE', 'WORKASPACE' ) );
#70 = EDGE_CURVE ( 'NONE', #59, #246, #80, .T. ) ;
#71 = COORDINATED_UNIVERSAL_TIME_OFFSET ( 1, 0, .AHEAD. ) ;
#72 = ORIENTED_EDGE ( 'NONE', *, *, #32, .F. ) ;
#73 = DIRECTION ( 'NONE',  ( 1.000000000000000000, 0.000000000000000000, 0.000000000000000000 ) ) ;
#74 = AXIS2_PLACEMENT_3D ( 'NONE', #122, #101, #5 ) ;
#75 = EDGE_LOOP ( 'NONE', ( #197, #210 ) ) ;
#76 = APPROVAL_DATE_TIME ( #232, #241 ) ;
#77 = LINE ( 'NONE', #114, #45 ) ;
#78 = CARTESIAN_POINT ( 'NONE',  ( 0.000000000000000000, 0.000000000000000000, 2.000000000000000000 ) ) ;
#79 = CYLINDRICAL_SURFACE ( 'NONE', #234, 2.500000000000000000 ) ;
#80 = CIRCLE ( 'NONE', #74, 2.500000000000000000 ) ;
#81 = ADVANCED_FACE ( 'NONE', ( #237 ), #230, .T. ) ;
#82 = SECURITY_CLASSIFICATION ( '', '', #203 ) ;
#83 = PERSON_AND_ORGANIZATION ( #41, #143 ) ;
#84 = COORDINATED_UNIVERSAL_TIME_OFFSET ( 1, 0, .AHEAD. ) ;
#85 = LOCAL_TIME ( 17, 40, 47.00000000000000000, #220 ) ;
#86 = EDGE_CURVE ( 'NONE', #156, #246, #173, .T. ) ;
#87 = DATE_TIME_ROLE ( 'creation_date' ) ;
#88 = SHAPE_DEFINITION_REPRESENTATION ( #172, #24 ) ;
#89 = DIRECTION ( 'NONE',  ( 0.000000000000000000, 0.000000000000000000, 1.000000000000000000 ) ) ;
#90 = ORIENTED_EDGE ( 'NONE', *, *, #4, .F. ) ;
#91 = CARTESIAN_POINT ( 'NONE',  ( 0.000000000000000000, 0.000000000000000000, 2.000000000000000000 ) ) ;
#92 = DIRECTION ( 'NONE',  ( 0.000000000000000000, 0.000000000000000000, 1.000000000000000000 ) ) ;
#93 = DIRECTION ( 'NONE',  ( 0.000000000000000000, 0.000000000000000000, 1.000000000000000000 ) ) ;
#94 = DIRECTION ( 'NONE',  ( 1.000000000000000000, 0.000000000000000000, -0.000000000000000000 ) ) ;
#95 = AXIS2_PLACEMENT_3D ( 'NONE', #164, #196, #254 ) ;
#96 = CC_DESIGN_APPROVAL ( #241, ( #82 ) ) ;
#97 = APPLICATION_CONTEXT ( 'configuration controlled 3d designs of mechanical parts and assemblies' ) ;
#98 = FACE_BOUND ( 'NONE', #129, .T. ) ;
#99 = EDGE_CURVE ( 'NONE', #156, #212, #248, .T. ) ;
#100 = PERSON_AND_ORGANIZATION ( #41, #143 ) ;
#101 = DIRECTION ( 'NONE',  ( 0.000000000000000000, 0.000000000000000000, 1.000000000000000000 ) ) ;
#102 = CALENDAR_DATE ( 2023, 13, 2 ) ;
#103 = APPROVAL_STATUS ( 'not_yet_approved' ) ;
#104 = DIRECTION ( 'NONE',  ( 1.000000000000000000, 0.000000000000000000, 0.000000000000000000 ) ) ;
#105 = CARTESIAN_POINT ( 'NONE',  ( 0.000000000000000000, 0.000000000000000000, 2.000000000000000000 ) ) ;
#106 = VERTEX_POINT ( 'NONE', #250 ) ;
#107 = CARTESIAN_POINT ( 'NONE',  ( 0.000000000000000000, 0.000000000000000000, 2.000000000000000000 ) ) ;
#108 = EDGE_CURVE ( 'NONE', #16, #174, #134, .T. ) ;
#109 = PLANE ( 'NONE',  #155 ) ;
#110 = VECTOR ( 'NONE', #35, 1000.000000000000000 ) ;
#111 = ORIENTED_EDGE ( 'NONE', *, *, #165, .F. ) ;
#112 = ORIENTED_EDGE ( 'NONE', *, *, #32, .T. ) ;
#113 =( NAMED_UNIT ( * ) PLANE_ANGLE_UNIT ( ) SI_UNIT ( $, .RADIAN. ) );
#114 = CARTESIAN_POINT ( 'NONE',  ( 2.500000000000000000, 3.061616997868383141E-16, 2.000000000000000000 ) ) ;
#115 = PLANE ( 'NONE',  #31 ) ;
#116 = CIRCLE ( 'NONE', #60, 2.500000000000000000 ) ;
#117 = COORDINATED_UNIVERSAL_TIME_OFFSET ( 1, 0, .AHEAD. ) ;
#118 = EDGE_CURVE ( 'NONE', #106, #174, #18, .T. ) ;
#119 = PERSON_AND_ORGANIZATION_ROLE ( 'design_supplier' ) ;
#120 = VECTOR ( 'NONE', #9, 1000.000000000000000 ) ;
#121 = APPROVAL_PERSON_ORGANIZATION ( #83, #146, #137 ) ;
#122 = CARTESIAN_POINT ( 'NONE',  ( 0.000000000000000000, 0.000000000000000000, 0.000000000000000000 ) ) ;
#123 = PRODUCT_DEFINITION ( 'NEZNÁMÝ', '', #7, #28 ) ;
#124 = CARTESIAN_POINT ( 'NONE',  ( 0.000000000000000000, 0.000000000000000000, 0.000000000000000000 ) ) ;
#125 = DIRECTION ( 'NONE',  ( 1.000000000000000000, 0.000000000000000000, 0.000000000000000000 ) ) ;
#126 = EDGE_LOOP ( 'NONE', ( #171, #14 ) ) ;
#127 = ORIENTED_EDGE ( 'NONE', *, *, #66, .F. ) ;
#128 = CARTESIAN_POINT ( 'NONE',  ( -2.500000000000000000, 0.000000000000000000, 2.000000000000000000 ) ) ;
#129 = EDGE_LOOP ( 'NONE', ( #229, #127 ) ) ;
#130 = DIRECTION ( 'NONE',  ( 1.000000000000000000, 0.000000000000000000, 0.000000000000000000 ) ) ;
#131 = DIRECTION ( 'NONE',  ( -1.000000000000000000, 0.000000000000000000, 0.000000000000000000 ) ) ;
#132 = ORIENTED_EDGE ( 'NONE', *, *, #86, .T. ) ;
#133 = PRODUCT ( '7170', '7170', '', ( #159 ) ) ;
#134 = CIRCLE ( 'NONE', #68, 1.250000000000000000 ) ;
#135 = AXIS2_PLACEMENT_3D ( 'NONE', #124, #222, #205 ) ;
#136 = CARTESIAN_POINT ( 'NONE',  ( 0.000000000000000000, 0.000000000000000000, 2.000000000000000000 ) ) ;
#137 = APPROVAL_ROLE ( '' ) ;
#138 = ADVANCED_FACE ( 'NONE', ( #233 ), #11, .T. ) ;
#139 = LOCAL_TIME ( 17, 40, 47.00000000000000000, #117 ) ;
#140 = DIRECTION ( 'NONE',  ( 1.000000000000000000, 0.000000000000000000, 0.000000000000000000 ) ) ;
#141 = PERSON_AND_ORGANIZATION ( #41, #143 ) ;
#142 = CLOSED_SHELL ( 'NONE', ( #138, #21, #188, #56, #17, #157, #81 ) ) ;
#143 = ORGANIZATION ( 'NEURÈENÝ', 'NEURÈENÝ', '' ) ;
#144 = DIRECTION ( 'NONE',  ( 0.000000000000000000, 0.000000000000000000, 1.000000000000000000 ) ) ;
#145 = EDGE_LOOP ( 'NONE', ( #90, #112, #62, #10 ) ) ;
#146 = APPROVAL ( #239, 'NEURÈENÝ' ) ;
#147 = CIRCLE ( 'NONE', #158, 1.250000000000000000 ) ;
#148 = DIRECTION ( 'NONE',  ( 1.000000000000000000, 0.000000000000000000, -0.000000000000000000 ) ) ;
#149 = EDGE_LOOP ( 'NONE', ( #72, #231, #132, #151 ) ) ;
#150 = CYLINDRICAL_SURFACE ( 'NONE', #207, 2.500000000000000000 ) ;
#151 = ORIENTED_EDGE ( 'NONE', *, *, #165, .T. ) ;
#152 = CARTESIAN_POINT ( 'NONE',  ( 0.000000000000000000, 0.000000000000000000, 125.0000000000000000 ) ) ;
#153 = CC_DESIGN_DATE_AND_TIME_ASSIGNMENT ( #49, #243, ( #82 ) ) ;
#154 = EDGE_LOOP ( 'NONE', ( #253, #216, #166, #191 ) ) ;
#155 = AXIS2_PLACEMENT_3D ( 'NONE', #193, #92, #94 ) ;
#156 = VERTEX_POINT ( 'NONE', #206 ) ;
#157 = ADVANCED_FACE ( 'NONE', ( #226 ), #53, .T. ) ;
#158 = AXIS2_PLACEMENT_3D ( 'NONE', #223, #185, #140 ) ;
#159 = MECHANICAL_CONTEXT ( 'NONE', #97, 'mechanical' ) ;
#160 = APPROVAL_DATE_TIME ( #44, #146 ) ;
#161 = APPROVAL_PERSON_ORGANIZATION ( #67, #12, #204 ) ;
#162 = CALENDAR_DATE ( 2023, 13, 2 ) ;
#163 = LOCAL_TIME ( 17, 40, 47.00000000000000000, #84 ) ;
#164 = CARTESIAN_POINT ( 'NONE',  ( 0.000000000000000000, 0.000000000000000000, 125.0000000000000000 ) ) ;
#165 = EDGE_CURVE ( 'NONE', #246, #59, #19, .T. ) ;
#166 = ORIENTED_EDGE ( 'NONE', *, *, #214, .T. ) ;
#167 = CARTESIAN_POINT ( 'NONE',  ( 1.250000000000000000, 1.530808498934191571E-16, 2.000000000000000000 ) ) ;
#168 = DIRECTION ( 'NONE',  ( 1.000000000000000000, 0.000000000000000000, 0.000000000000000000 ) ) ;
#169 = FACE_OUTER_BOUND ( 'NONE', #145, .T. ) ;
#170 = CARTESIAN_POINT ( 'NONE',  ( -1.250000000000000000, 0.000000000000000000, 125.0000000000000000 ) ) ;
#171 = ORIENTED_EDGE ( 'NONE', *, *, #99, .T. ) ;
#172 = PRODUCT_DEFINITION_SHAPE ( 'NONE', 'NONE',  #123 ) ;
#173 = LINE ( 'NONE', #128, #120 ) ;
#174 = VERTEX_POINT ( 'NONE', #167 ) ;
#175 = AXIS2_PLACEMENT_3D ( 'NONE', #30, #209, #148 ) ;
#176 = CC_DESIGN_PERSON_AND_ORGANIZATION_ASSIGNMENT ( #202, #236, ( #7 ) ) ;
#177 = APPLICATION_CONTEXT ( 'configuration controlled 3d designs of mechanical parts and assemblies' ) ;
#178 = CC_DESIGN_PERSON_AND_ORGANIZATION_ASSIGNMENT ( #2, #235, ( #123 ) ) ;
#179 = APPLICATION_PROTOCOL_DEFINITION ( 'international standard', 'config_control_design', 1994, #97 ) ;
#180 = COORDINATED_UNIVERSAL_TIME_OFFSET ( 1, 0, .AHEAD. ) ;
#181 = CIRCLE ( 'NONE', #186, 1.250000000000000000 ) ;
#182 = UNCERTAINTY_MEASURE_WITH_UNIT (LENGTH_MEASURE( 1.000000000000000082E-05 ), #218, 'distance_accuracy_value', 'NONE');
#183 = LOCAL_TIME ( 17, 40, 47.00000000000000000, #180 ) ;
#184 = APPLICATION_PROTOCOL_DEFINITION ( 'international standard', 'config_control_design', 1994, #177 ) ;
#185 = DIRECTION ( 'NONE',  ( 0.000000000000000000, 0.000000000000000000, 1.000000000000000000 ) ) ;
#186 = AXIS2_PLACEMENT_3D ( 'NONE', #217, #13, #255 ) ;
#187 = APPROVAL_ROLE ( '' ) ;
#188 = ADVANCED_FACE ( 'NONE', ( #58 ), #150, .T. ) ;
#189 = FACE_OUTER_BOUND ( 'NONE', #34, .T. ) ;
#190 = CARTESIAN_POINT ( 'NONE',  ( 1.250000000000000000, 1.530808498934191571E-16, 125.0000000000000000 ) ) ;
#191 = ORIENTED_EDGE ( 'NONE', *, *, #108, .T. ) ;
#192 = CARTESIAN_POINT ( 'NONE',  ( 2.500000000000000000, 3.061616997868383141E-16, 2.000000000000000000 ) ) ;
#193 = CARTESIAN_POINT ( 'NONE',  ( 0.000000000000000000, 0.000000000000000000, 0.000000000000000000 ) ) ;
#194 = DIRECTION ( 'NONE',  ( -0.000000000000000000, -0.000000000000000000, -1.000000000000000000 ) ) ;
#195 = ORIENTED_EDGE ( 'NONE', *, *, #70, .F. ) ;
#196 = DIRECTION ( 'NONE',  ( -0.000000000000000000, -0.000000000000000000, -1.000000000000000000 ) ) ;
#197 = ORIENTED_EDGE ( 'NONE', *, *, #238, .T. ) ;
#198 = CC_DESIGN_DATE_AND_TIME_ASSIGNMENT ( #63, #87, ( #123 ) ) ;
#199 = APPROVAL_PERSON_ORGANIZATION ( #249, #241, #187 ) ;
#200 = DIRECTION ( 'NONE',  ( 0.000000000000000000, 0.000000000000000000, 1.000000000000000000 ) ) ;
#201 = AXIS2_PLACEMENT_3D ( 'NONE', #152, #228, #211 ) ;
#202 = PERSON_AND_ORGANIZATION ( #41, #143 ) ;
#203 = SECURITY_CLASSIFICATION_LEVEL ( 'unclassified' ) ;
#204 = APPROVAL_ROLE ( '' ) ;
#205 = DIRECTION ( 'NONE',  ( 1.000000000000000000, 0.000000000000000000, 0.000000000000000000 ) ) ;
#206 = CARTESIAN_POINT ( 'NONE',  ( -2.500000000000000000, 0.000000000000000000, 2.000000000000000000 ) ) ;
#207 = AXIS2_PLACEMENT_3D ( 'NONE', #107, #244, #50 ) ;
#208 = CC_DESIGN_APPROVAL ( #146, ( #7 ) ) ;
#209 = DIRECTION ( 'NONE',  ( 0.000000000000000000, 0.000000000000000000, 1.000000000000000000 ) ) ;
#210 = ORIENTED_EDGE ( 'NONE', *, *, #1, .T. ) ;
#211 = DIRECTION ( 'NONE',  ( -1.000000000000000000, 0.000000000000000000, 0.000000000000000000 ) ) ;
#212 = VERTEX_POINT ( 'NONE', #192 ) ;
#213 = LINE ( 'NONE', #37, #51 ) ;
#214 = EDGE_CURVE ( 'NONE', #245, #16, #213, .T. ) ;
#215 = DIRECTION ( 'NONE',  ( -0.000000000000000000, -0.000000000000000000, -1.000000000000000000 ) ) ;
#216 = ORIENTED_EDGE ( 'NONE', *, *, #238, .F. ) ;
#217 = CARTESIAN_POINT ( 'NONE',  ( 0.000000000000000000, 0.000000000000000000, 125.0000000000000000 ) ) ;
#218 =( LENGTH_UNIT ( ) NAMED_UNIT ( * ) SI_UNIT ( .MILLI., .METRE. ) );
#219 = CC_DESIGN_PERSON_AND_ORGANIZATION_ASSIGNMENT ( #64, #119, ( #7 ) ) ;
#220 = COORDINATED_UNIVERSAL_TIME_OFFSET ( 1, 0, .AHEAD. ) ;
#221 = AXIS2_PLACEMENT_3D ( 'NONE', #55, #89, #168 ) ;
#222 = DIRECTION ( 'NONE',  ( 0.000000000000000000, 0.000000000000000000, 1.000000000000000000 ) ) ;
#223 = CARTESIAN_POINT ( 'NONE',  ( 0.000000000000000000, 0.000000000000000000, 2.000000000000000000 ) ) ;
#224 = CIRCLE ( 'NONE', #242, 1.250000000000000000 ) ;
#225 = LOCAL_TIME ( 17, 40, 47.00000000000000000, #71 ) ;
#226 = FACE_OUTER_BOUND ( 'NONE', #154, .T. ) ;
#227 = ORIENTED_EDGE ( 'NONE', *, *, #118, .T. ) ;
#228 = DIRECTION ( 'NONE',  ( -0.000000000000000000, -0.000000000000000000, -1.000000000000000000 ) ) ;
#229 = ORIENTED_EDGE ( 'NONE', *, *, #108, .F. ) ;
#230 = PLANE ( 'NONE',  #175 ) ;
#231 = ORIENTED_EDGE ( 'NONE', *, *, #99, .F. ) ;
#232 = DATE_AND_TIME ( #8, #225 ) ;
#233 = FACE_OUTER_BOUND ( 'NONE', #38, .T. ) ;
#234 = AXIS2_PLACEMENT_3D ( 'NONE', #78, #215, #131 ) ;
#235 = PERSON_AND_ORGANIZATION_ROLE ( 'creator' ) ;
#236 = PERSON_AND_ORGANIZATION_ROLE ( 'creator' ) ;
#237 = FACE_OUTER_BOUND ( 'NONE', #75, .T. ) ;
#238 = EDGE_CURVE ( 'NONE', #245, #106, #224, .T. ) ;
#239 = APPROVAL_STATUS ( 'not_yet_approved' ) ;
#240 = CARTESIAN_POINT ( 'NONE',  ( 2.500000000000000000, 3.061616997868383141E-16, 0.000000000000000000 ) ) ;
#241 = APPROVAL ( #103, 'NEURÈENÝ' ) ;
#242 = AXIS2_PLACEMENT_3D ( 'NONE', #15, #93, #125 ) ;
#243 = DATE_TIME_ROLE ( 'classification_date' ) ;
#244 = DIRECTION ( 'NONE',  ( -0.000000000000000000, -0.000000000000000000, -1.000000000000000000 ) ) ;
#245 = VERTEX_POINT ( 'NONE', #170 ) ;
#246 = VERTEX_POINT ( 'NONE', #252 ) ;
#247 = CC_DESIGN_PERSON_AND_ORGANIZATION_ASSIGNMENT ( #100, #6, ( #82 ) ) ;
#248 = CIRCLE ( 'NONE', #48, 2.500000000000000000 ) ;
#249 = PERSON_AND_ORGANIZATION ( #41, #143 ) ;
#250 = CARTESIAN_POINT ( 'NONE',  ( 1.250000000000000000, 1.530808498934191571E-16, 125.0000000000000000 ) ) ;
#251 = ORIENTED_EDGE ( 'NONE', *, *, #66, .T. ) ;
#252 = CARTESIAN_POINT ( 'NONE',  ( -2.500000000000000000, 0.000000000000000000, 0.000000000000000000 ) ) ;
#253 = ORIENTED_EDGE ( 'NONE', *, *, #118, .F. ) ;
#254 = DIRECTION ( 'NONE',  ( -1.000000000000000000, 0.000000000000000000, 0.000000000000000000 ) ) ;
#255 = DIRECTION ( 'NONE',  ( 1.000000000000000000, 0.000000000000000000, 0.000000000000000000 ) ) ;
ENDSEC;
END-ISO-10303-21;
