ISO-10303-21;
HEADER;
FILE_DESCRIPTION (( 'STEP AP203' ),
    '1' );
FILE_NAME ('d836.STEP',
    '2023-02-13T10:44:11',
    ( '' ),
    ( '' ),
    'SwSTEP 2.0',
    'SolidWorks 2019',
    '' );
FILE_SCHEMA (( 'CONFIG_CONTROL_DESIGN' ));
ENDSEC;

DATA;
#1 = UNCERTAINTY_MEASURE_WITH_UNIT (LENGTH_MEASURE( 1.000000000000000082E-05 ), #95, 'distance_accuracy_value', 'NONE');
#2 = DIRECTION ( 'NONE',  ( 0.000000000000000000, 0.000000000000000000, 1.000000000000000000 ) ) ;
#3 = CYLINDRICAL_SURFACE ( 'NONE', #106, 6.750000000000000000 ) ;
#4 = LINE ( 'NONE', #166, #82 ) ;
#5 = EDGE_CURVE ( 'NONE', #65, #235, #126, .T. ) ;
#6 = CIRCLE ( 'NONE', #162, 11.00000000000000000 ) ;
#7 = DIRECTION ( 'NONE',  ( 0.000000000000000000, 0.000000000000000000, 1.000000000000000000 ) ) ;
#8 = ORIENTED_EDGE ( 'NONE', *, *, #132, .T. ) ;
#9 = EDGE_CURVE ( 'NONE', #14, #213, #131, .T. ) ;
#10 = AXIS2_PLACEMENT_3D ( 'NONE', #35, #249, #122 ) ;
#11 = VERTEX_POINT ( 'NONE', #59 ) ;
#12 = SECURITY_CLASSIFICATION_LEVEL ( 'unclassified' ) ;
#13 = DATE_TIME_ROLE ( 'classification_date' ) ;
#14 = VERTEX_POINT ( 'NONE', #97 ) ;
#15 = PERSON_AND_ORGANIZATION_ROLE ( 'creator' ) ;
#16 = PERSON_AND_ORGANIZATION_ROLE ( 'classification_officer' ) ;
#17 = AXIS2_PLACEMENT_3D ( 'NONE', #148, #21, #116 ) ;
#18 = CARTESIAN_POINT ( 'NONE',  ( 0.000000000000000000, 0.000000000000000000, 500.0000000000000000 ) ) ;
#19 = DIRECTION ( 'NONE',  ( 0.000000000000000000, 0.000000000000000000, 1.000000000000000000 ) ) ;
#20 = CARTESIAN_POINT ( 'NONE',  ( 0.000000000000000000, 0.000000000000000000, 500.0000000000000000 ) ) ;
#21 = DIRECTION ( 'NONE',  ( 0.000000000000000000, 0.000000000000000000, 1.000000000000000000 ) ) ;
#22 = FACE_OUTER_BOUND ( 'NONE', #55, .T. ) ;
#23 = ADVANCED_FACE ( 'NONE', ( #45 ), #255, .T. ) ;
#24 = CARTESIAN_POINT ( 'NONE',  ( 0.000000000000000000, 0.000000000000000000, 7.000000000000000000 ) ) ;
#25 = CARTESIAN_POINT ( 'NONE',  ( -6.750000000000000000, 0.000000000000000000, 7.000000000000000000 ) ) ;
#26 = ORIENTED_EDGE ( 'NONE', *, *, #83, .F. ) ;
#27 = DIRECTION ( 'NONE',  ( -0.000000000000000000, -0.000000000000000000, -1.000000000000000000 ) ) ;
#28 = LOCAL_TIME ( 11, 44, 11.00000000000000000, #70 ) ;
#29 = VERTEX_POINT ( 'NONE', #114 ) ;
#30 = ORIENTED_EDGE ( 'NONE', *, *, #67, .F. ) ;
#31 = CIRCLE ( 'NONE', #136, 11.00000000000000000 ) ;
#32 = CC_DESIGN_PERSON_AND_ORGANIZATION_ASSIGNMENT ( #177, #182, ( #194 ) ) ;
#33 = CARTESIAN_POINT ( 'NONE',  ( 6.750000000000000000, 8.266365894244634333E-16, 500.0000000000000000 ) ) ;
#34 = AXIS2_PLACEMENT_3D ( 'NONE', #251, #254, #113 ) ;
#35 = CARTESIAN_POINT ( 'NONE',  ( 0.000000000000000000, 0.000000000000000000, 0.000000000000000000 ) ) ;
#36 = EDGE_LOOP ( 'NONE', ( #221, #135 ) ) ;
#37 = DATE_AND_TIME ( #104, #87 ) ;
#38 = ORIENTED_EDGE ( 'NONE', *, *, #51, .T. ) ;
#39 = CARTESIAN_POINT ( 'NONE',  ( 0.000000000000000000, 0.000000000000000000, 7.000000000000000000 ) ) ;
#40 = DIRECTION ( 'NONE',  ( -0.000000000000000000, -0.000000000000000000, -1.000000000000000000 ) ) ;
#41 = DIRECTION ( 'NONE',  ( 1.000000000000000000, 0.000000000000000000, 0.000000000000000000 ) ) ;
#42 = LOCAL_TIME ( 11, 44, 11.00000000000000000, #196 ) ;
#43 = ADVANCED_FACE ( 'NONE', ( #47 ), #206, .T. ) ;
#44 = DIRECTION ( 'NONE',  ( 0.000000000000000000, 0.000000000000000000, 1.000000000000000000 ) ) ;
#45 = FACE_OUTER_BOUND ( 'NONE', #163, .T. ) ;
#46 = CARTESIAN_POINT ( 'NONE',  ( 0.000000000000000000, 0.000000000000000000, 0.000000000000000000 ) ) ;
#47 = FACE_OUTER_BOUND ( 'NONE', #108, .T. ) ;
#48 = CARTESIAN_POINT ( 'NONE',  ( -11.00000000000000000, 0.000000000000000000, 0.000000000000000000 ) ) ;
#49 = ORIENTED_EDGE ( 'NONE', *, *, #234, .F. ) ;
#50 = SECURITY_CLASSIFICATION ( '', '', #12 ) ;
#51 = EDGE_CURVE ( 'NONE', #11, #65, #129, .T. ) ;
#52 = PERSON_AND_ORGANIZATION ( #102, #142 ) ;
#53 = APPROVAL_STATUS ( 'not_yet_approved' ) ;
#54 = PERSON_AND_ORGANIZATION ( #102, #142 ) ;
#55 = EDGE_LOOP ( 'NONE', ( #160, #49 ) ) ;
#56 = CC_DESIGN_PERSON_AND_ORGANIZATION_ASSIGNMENT ( #179, #16, ( #50 ) ) ;
#57 = CC_DESIGN_APPROVAL ( #250, ( #117 ) ) ;
#58 = PLANE ( 'NONE',  #17 ) ;
#59 = CARTESIAN_POINT ( 'NONE',  ( -6.750000000000000000, 0.000000000000000000, 500.0000000000000000 ) ) ;
#60 = CALENDAR_DATE ( 2023, 13, 2 ) ;
#61 = EDGE_CURVE ( 'NONE', #29, #183, #4, .T. ) ;
#62 = DIRECTION ( 'NONE',  ( -0.000000000000000000, -0.000000000000000000, -1.000000000000000000 ) ) ;
#63 = AXIS2_PLACEMENT_3D ( 'NONE', #172, #7, #165 ) ;
#64 = CYLINDRICAL_SURFACE ( 'NONE', #236, 11.00000000000000000 ) ;
#65 = VERTEX_POINT ( 'NONE', #110 ) ;
#66 =( GEOMETRIC_REPRESENTATION_CONTEXT ( 3 ) GLOBAL_UNCERTAINTY_ASSIGNED_CONTEXT ( ( #1 ) ) GLOBAL_UNIT_ASSIGNED_CONTEXT ( ( #95, #205, #167 ) ) REPRESENTATION_CONTEXT ( 'NONE', 'WORKASPACE' ) );
#67 = EDGE_CURVE ( 'NONE', #65, #11, #215, .T. ) ;
#68 = CALENDAR_DATE ( 2023, 13, 2 ) ;
#69 = CALENDAR_DATE ( 2023, 13, 2 ) ;
#70 = COORDINATED_UNIVERSAL_TIME_OFFSET ( 1, 0, .AHEAD. ) ;
#71 = CC_DESIGN_PERSON_AND_ORGANIZATION_ASSIGNMENT ( #52, #15, ( #194 ) ) ;
#72 = CARTESIAN_POINT ( 'NONE',  ( 6.750000000000000000, 8.266365894244634333E-16, 7.000000000000000000 ) ) ;
#73 = AXIS2_PLACEMENT_3D ( 'NONE', #170, #192, #173 ) ;
#74 = CARTESIAN_POINT ( 'NONE',  ( 11.00000000000000000, 1.347111479062088405E-15, 0.000000000000000000 ) ) ;
#75 = CARTESIAN_POINT ( 'NONE',  ( 0.000000000000000000, 0.000000000000000000, 7.000000000000000000 ) ) ;
#76 = DIRECTION ( 'NONE',  ( 1.000000000000000000, 0.000000000000000000, -0.000000000000000000 ) ) ;
#77 = VECTOR ( 'NONE', #27, 1000.000000000000000 ) ;
#78 = DIRECTION ( 'NONE',  ( 1.000000000000000000, 0.000000000000000000, 0.000000000000000000 ) ) ;
#79 = ORIENTED_EDGE ( 'NONE', *, *, #9, .T. ) ;
#80 = AXIS2_PLACEMENT_3D ( 'NONE', #39, #226, #41 ) ;
#81 = MANIFOLD_SOLID_BREP ( 'Pøidat vysunutím3', #217 ) ;
#82 = VECTOR ( 'NONE', #40, 1000.000000000000000 ) ;
#83 = EDGE_CURVE ( 'NONE', #29, #14, #31, .T. ) ;
#84 = MECHANICAL_CONTEXT ( 'NONE', #241, 'mechanical' ) ;
#85 = APPROVAL_ROLE ( '' ) ;
#86 = CC_DESIGN_SECURITY_CLASSIFICATION ( #50, ( #194 ) ) ;
#87 = LOCAL_TIME ( 11, 44, 11.00000000000000000, #109 ) ;
#88 = ORIENTED_EDGE ( 'NONE', *, *, #89, .T. ) ;
#89 = EDGE_CURVE ( 'NONE', #183, #213, #6, .T. ) ;
#90 = PRODUCT ( 'd836', 'd836', '', ( #84 ) ) ;
#91 = LINE ( 'NONE', #127, #252 ) ;
#92 = ADVANCED_FACE ( 'NONE', ( #228 ), #64, .T. ) ;
#93 = AXIS2_PLACEMENT_3D ( 'NONE', #20, #149, #229 ) ;
#94 = PLANE ( 'NONE',  #188 ) ;
#95 =( LENGTH_UNIT ( ) NAMED_UNIT ( * ) SI_UNIT ( .MILLI., .METRE. ) );
#96 = CARTESIAN_POINT ( 'NONE',  ( 0.000000000000000000, 0.000000000000000000, 7.000000000000000000 ) ) ;
#97 = CARTESIAN_POINT ( 'NONE',  ( 11.00000000000000000, 1.347111479062088405E-15, 7.000000000000000000 ) ) ;
#98 = CIRCLE ( 'NONE', #208, 11.00000000000000000 ) ;
#99 = ADVANCED_FACE ( 'NONE', ( #191 ), #3, .T. ) ;
#100 = ORIENTED_EDGE ( 'NONE', *, *, #222, .F. ) ;
#101 = APPLICATION_CONTEXT ( 'configuration controlled 3d designs of mechanical parts and assemblies' ) ;
#102 = PERSON ( 'NEURÈENÝ', 'NEURÈENÝ', 'NEURÈENÝ', ('NEURÈENÝ'), ('NEURÈENÝ'), ('NEURÈENÝ') ) ;
#103 = LOCAL_TIME ( 11, 44, 11.00000000000000000, #253 ) ;
#104 = CALENDAR_DATE ( 2023, 13, 2 ) ;
#105 = ORIENTED_EDGE ( 'NONE', *, *, #67, .T. ) ;
#106 = AXIS2_PLACEMENT_3D ( 'NONE', #18, #62, #112 ) ;
#107 = DATE_AND_TIME ( #198, #240 ) ;
#108 = EDGE_LOOP ( 'NONE', ( #245, #223, #155, #8 ) ) ;
#109 = COORDINATED_UNIVERSAL_TIME_OFFSET ( 1, 0, .AHEAD. ) ;
#110 = CARTESIAN_POINT ( 'NONE',  ( 6.750000000000000000, 8.266365894244634333E-16, 500.0000000000000000 ) ) ;
#111 = AXIS2_PLACEMENT_3D ( 'NONE', #75, #211, #150 ) ;
#112 = DIRECTION ( 'NONE',  ( -1.000000000000000000, 0.000000000000000000, 0.000000000000000000 ) ) ;
#113 = DIRECTION ( 'NONE',  ( 1.000000000000000000, 0.000000000000000000, 0.000000000000000000 ) ) ;
#114 = CARTESIAN_POINT ( 'NONE',  ( -11.00000000000000000, 0.000000000000000000, 7.000000000000000000 ) ) ;
#115 = APPROVAL_STATUS ( 'not_yet_approved' ) ;
#116 = DIRECTION ( 'NONE',  ( 1.000000000000000000, 0.000000000000000000, -0.000000000000000000 ) ) ;
#117 = PRODUCT_DEFINITION ( 'NEZNÁMÝ', '', #194, #246 ) ;
#118 = APPROVAL_PERSON_ORGANIZATION ( #231, #153, #171 ) ;
#119 = DIRECTION ( 'NONE',  ( -0.000000000000000000, -0.000000000000000000, -1.000000000000000000 ) ) ;
#120 = CC_DESIGN_APPROVAL ( #227, ( #194 ) ) ;
#121 = PERSON_AND_ORGANIZATION_ROLE ( 'design_owner' ) ;
#122 = DIRECTION ( 'NONE',  ( 1.000000000000000000, 0.000000000000000000, 0.000000000000000000 ) ) ;
#123 = CIRCLE ( 'NONE', #34, 11.00000000000000000 ) ;
#124 = APPLICATION_PROTOCOL_DEFINITION ( 'international standard', 'config_control_design', 1994, #101 ) ;
#125 = ORIENTED_EDGE ( 'NONE', *, *, #218, .T. ) ;
#126 = LINE ( 'NONE', #33, #225 ) ;
#127 = CARTESIAN_POINT ( 'NONE',  ( -6.750000000000000000, 0.000000000000000000, 500.0000000000000000 ) ) ;
#128 = DIRECTION ( 'NONE',  ( 1.000000000000000000, 0.000000000000000000, 0.000000000000000000 ) ) ;
#129 = CIRCLE ( 'NONE', #73, 6.750000000000000000 ) ;
#130 = DIRECTION ( 'NONE',  ( 0.000000000000000000, 0.000000000000000000, 1.000000000000000000 ) ) ;
#131 = LINE ( 'NONE', #210, #77 ) ;
#132 = EDGE_CURVE ( 'NONE', #180, #235, #151, .T. ) ;
#133 = DIRECTION ( 'NONE',  ( 1.000000000000000000, 0.000000000000000000, 0.000000000000000000 ) ) ;
#134 = ORIENTED_EDGE ( 'NONE', *, *, #61, .T. ) ;
#135 = ORIENTED_EDGE ( 'NONE', *, *, #218, .F. ) ;
#136 = AXIS2_PLACEMENT_3D ( 'NONE', #212, #130, #133 ) ;
#137 = ADVANCED_FACE ( 'NONE', ( #22 ), #58, .F. ) ;
#138 = PRODUCT_DEFINITION_SHAPE ( 'NONE', 'NONE',  #117 ) ;
#139 = ORIENTED_EDGE ( 'NONE', *, *, #61, .F. ) ;
#140 = EDGE_CURVE ( 'NONE', #11, #180, #91, .T. ) ;
#141 = DATE_TIME_ROLE ( 'creation_date' ) ;
#142 = ORGANIZATION ( 'NEURÈENÝ', 'NEURÈENÝ', '' ) ;
#143 = ORIENTED_EDGE ( 'NONE', *, *, #234, .T. ) ;
#144 = PERSON_AND_ORGANIZATION_ROLE ( 'creator' ) ;
#145 = ORIENTED_EDGE ( 'NONE', *, *, #83, .T. ) ;
#146 = DATE_AND_TIME ( #69, #28 ) ;
#147 = APPROVAL_DATE_TIME ( #189, #153 ) ;
#148 = CARTESIAN_POINT ( 'NONE',  ( 0.000000000000000000, 0.000000000000000000, 0.000000000000000000 ) ) ;
#149 = DIRECTION ( 'NONE',  ( 0.000000000000000000, 0.000000000000000000, 1.000000000000000000 ) ) ;
#150 = DIRECTION ( 'NONE',  ( 1.000000000000000000, 0.000000000000000000, -0.000000000000000000 ) ) ;
#151 = CIRCLE ( 'NONE', #80, 6.750000000000000000 ) ;
#152 = DIRECTION ( 'NONE',  ( -0.000000000000000000, -0.000000000000000000, -1.000000000000000000 ) ) ;
#153 = APPROVAL ( #115, 'NEURÈENÝ' ) ;
#154 = APPLICATION_PROTOCOL_DEFINITION ( 'international standard', 'config_control_design', 1994, #241 ) ;
#155 = ORIENTED_EDGE ( 'NONE', *, *, #140, .T. ) ;
#156 = ADVANCED_FACE ( 'NONE', ( #193 ), #94, .T. ) ;
#157 = CIRCLE ( 'NONE', #63, 6.750000000000000000 ) ;
#158 = COORDINATED_UNIVERSAL_TIME_OFFSET ( 1, 0, .AHEAD. ) ;
#159 = EDGE_LOOP ( 'NONE', ( #30, #238, #125, #219 ) ) ;
#160 = ORIENTED_EDGE ( 'NONE', *, *, #89, .F. ) ;
#161 = PERSON_AND_ORGANIZATION ( #102, #142 ) ;
#162 = AXIS2_PLACEMENT_3D ( 'NONE', #46, #19, #128 ) ;
#163 = EDGE_LOOP ( 'NONE', ( #248, #26, #134, #88 ) ) ;
#164 = PRODUCT_RELATED_PRODUCT_CATEGORY ( 'detail', '', ( #90 ) ) ;
#165 = DIRECTION ( 'NONE',  ( 1.000000000000000000, 0.000000000000000000, 0.000000000000000000 ) ) ;
#166 = CARTESIAN_POINT ( 'NONE',  ( -11.00000000000000000, 0.000000000000000000, 7.000000000000000000 ) ) ;
#167 =( NAMED_UNIT ( * ) SI_UNIT ( $, .STERADIAN. ) SOLID_ANGLE_UNIT ( ) );
#168 = DIRECTION ( 'NONE',  ( -1.000000000000000000, 0.000000000000000000, 0.000000000000000000 ) ) ;
#169 = CARTESIAN_POINT ( 'NONE',  ( 0.000000000000000000, 0.000000000000000000, 500.0000000000000000 ) ) ;
#170 = CARTESIAN_POINT ( 'NONE',  ( 0.000000000000000000, 0.000000000000000000, 500.0000000000000000 ) ) ;
#171 = APPROVAL_ROLE ( '' ) ;
#172 = CARTESIAN_POINT ( 'NONE',  ( 0.000000000000000000, 0.000000000000000000, 7.000000000000000000 ) ) ;
#173 = DIRECTION ( 'NONE',  ( 1.000000000000000000, 0.000000000000000000, 0.000000000000000000 ) ) ;
#174 = APPROVAL_PERSON_ORGANIZATION ( #220, #227, #202 ) ;
#175 = ADVANCED_FACE ( 'NONE', ( #209, #187 ), #232, .T. ) ;
#176 = CC_DESIGN_APPROVAL ( #153, ( #50 ) ) ;
#177 = PERSON_AND_ORGANIZATION ( #102, #142 ) ;
#178 = AXIS2_PLACEMENT_3D ( 'NONE', #24, #233, #168 ) ;
#179 = PERSON_AND_ORGANIZATION ( #102, #142 ) ;
#180 = VERTEX_POINT ( 'NONE', #25 ) ;
#181 = DATE_AND_TIME ( #68, #42 ) ;
#182 = PERSON_AND_ORGANIZATION_ROLE ( 'design_supplier' ) ;
#183 = VERTEX_POINT ( 'NONE', #48 ) ;
#184 = CC_DESIGN_PERSON_AND_ORGANIZATION_ASSIGNMENT ( #54, #121, ( #90 ) ) ;
#185 = SHAPE_DEFINITION_REPRESENTATION ( #138, #237 ) ;
#186 = DIRECTION ( 'NONE',  ( -1.000000000000000000, 0.000000000000000000, 0.000000000000000000 ) ) ;
#187 = FACE_OUTER_BOUND ( 'NONE', #200, .T. ) ;
#188 = AXIS2_PLACEMENT_3D ( 'NONE', #169, #2, #76 ) ;
#189 = DATE_AND_TIME ( #60, #103 ) ;
#190 = DIRECTION ( 'NONE',  ( -0.000000000000000000, -0.000000000000000000, -1.000000000000000000 ) ) ;
#191 = FACE_OUTER_BOUND ( 'NONE', #159, .T. ) ;
#192 = DIRECTION ( 'NONE',  ( 0.000000000000000000, 0.000000000000000000, 1.000000000000000000 ) ) ;
#193 = FACE_OUTER_BOUND ( 'NONE', #216, .T. ) ;
#194 = PRODUCT_DEFINITION_FORMATION_WITH_SPECIFIED_SOURCE ( 'LIBOVOLNÝ', '', #90, .NOT_KNOWN. ) ;
#195 = APPROVAL_PERSON_ORGANIZATION ( #243, #250, #85 ) ;
#196 = COORDINATED_UNIVERSAL_TIME_OFFSET ( 1, 0, .AHEAD. ) ;
#197 = CC_DESIGN_PERSON_AND_ORGANIZATION_ASSIGNMENT ( #161, #144, ( #117 ) ) ;
#198 = CALENDAR_DATE ( 2023, 13, 2 ) ;
#199 = AXIS2_PLACEMENT_3D ( 'NONE', #204, #190, #186 ) ;
#200 = EDGE_LOOP ( 'NONE', ( #145, #201 ) ) ;
#201 = ORIENTED_EDGE ( 'NONE', *, *, #222, .T. ) ;
#202 = APPROVAL_ROLE ( '' ) ;
#203 = CC_DESIGN_DATE_AND_TIME_ASSIGNMENT ( #181, #141, ( #117 ) ) ;
#204 = CARTESIAN_POINT ( 'NONE',  ( 0.000000000000000000, 0.000000000000000000, 500.0000000000000000 ) ) ;
#205 =( NAMED_UNIT ( * ) PLANE_ANGLE_UNIT ( ) SI_UNIT ( $, .RADIAN. ) );
#206 = CYLINDRICAL_SURFACE ( 'NONE', #199, 6.750000000000000000 ) ;
#207 = DIRECTION ( 'NONE',  ( -1.000000000000000000, 0.000000000000000000, 0.000000000000000000 ) ) ;
#208 = AXIS2_PLACEMENT_3D ( 'NONE', #230, #44, #78 ) ;
#209 = FACE_BOUND ( 'NONE', #36, .T. ) ;
#210 = CARTESIAN_POINT ( 'NONE',  ( 11.00000000000000000, 1.347111479062088405E-15, 7.000000000000000000 ) ) ;
#211 = DIRECTION ( 'NONE',  ( 0.000000000000000000, 0.000000000000000000, 1.000000000000000000 ) ) ;
#212 = CARTESIAN_POINT ( 'NONE',  ( 0.000000000000000000, 0.000000000000000000, 7.000000000000000000 ) ) ;
#213 = VERTEX_POINT ( 'NONE', #74 ) ;
#214 = CC_DESIGN_DATE_AND_TIME_ASSIGNMENT ( #107, #13, ( #50 ) ) ;
#215 = CIRCLE ( 'NONE', #93, 6.750000000000000000 ) ;
#216 = EDGE_LOOP ( 'NONE', ( #38, #105 ) ) ;
#217 = CLOSED_SHELL ( 'NONE', ( #99, #92, #23, #175, #137, #43, #156 ) ) ;
#218 = EDGE_CURVE ( 'NONE', #235, #180, #157, .T. ) ;
#219 = ORIENTED_EDGE ( 'NONE', *, *, #140, .F. ) ;
#220 = PERSON_AND_ORGANIZATION ( #102, #142 ) ;
#221 = ORIENTED_EDGE ( 'NONE', *, *, #132, .F. ) ;
#222 = EDGE_CURVE ( 'NONE', #14, #29, #98, .T. ) ;
#223 = ORIENTED_EDGE ( 'NONE', *, *, #51, .F. ) ;
#224 = APPROVAL_DATE_TIME ( #146, #250 ) ;
#225 = VECTOR ( 'NONE', #242, 1000.000000000000000 ) ;
#226 = DIRECTION ( 'NONE',  ( 0.000000000000000000, 0.000000000000000000, 1.000000000000000000 ) ) ;
#227 = APPROVAL ( #53, 'NEURÈENÝ' ) ;
#228 = FACE_OUTER_BOUND ( 'NONE', #239, .T. ) ;
#229 = DIRECTION ( 'NONE',  ( 1.000000000000000000, 0.000000000000000000, 0.000000000000000000 ) ) ;
#230 = CARTESIAN_POINT ( 'NONE',  ( 0.000000000000000000, 0.000000000000000000, 7.000000000000000000 ) ) ;
#231 = PERSON_AND_ORGANIZATION ( #102, #142 ) ;
#232 = PLANE ( 'NONE',  #111 ) ;
#233 = DIRECTION ( 'NONE',  ( -0.000000000000000000, -0.000000000000000000, -1.000000000000000000 ) ) ;
#234 = EDGE_CURVE ( 'NONE', #213, #183, #123, .T. ) ;
#235 = VERTEX_POINT ( 'NONE', #72 ) ;
#236 = AXIS2_PLACEMENT_3D ( 'NONE', #96, #119, #207 ) ;
#237 = ADVANCED_BREP_SHAPE_REPRESENTATION ( 'd836', ( #81, #10 ), #66 ) ;
#238 = ORIENTED_EDGE ( 'NONE', *, *, #5, .T. ) ;
#239 = EDGE_LOOP ( 'NONE', ( #100, #79, #143, #139 ) ) ;
#240 = LOCAL_TIME ( 11, 44, 11.00000000000000000, #158 ) ;
#241 = APPLICATION_CONTEXT ( 'configuration controlled 3d designs of mechanical parts and assemblies' ) ;
#242 = DIRECTION ( 'NONE',  ( -0.000000000000000000, -0.000000000000000000, -1.000000000000000000 ) ) ;
#243 = PERSON_AND_ORGANIZATION ( #102, #142 ) ;
#244 = APPROVAL_DATE_TIME ( #37, #227 ) ;
#245 = ORIENTED_EDGE ( 'NONE', *, *, #5, .F. ) ;
#246 = DESIGN_CONTEXT ( 'detailed design', #101, 'design' ) ;
#247 = APPROVAL_STATUS ( 'not_yet_approved' ) ;
#248 = ORIENTED_EDGE ( 'NONE', *, *, #9, .F. ) ;
#249 = DIRECTION ( 'NONE',  ( 0.000000000000000000, 0.000000000000000000, 1.000000000000000000 ) ) ;
#250 = APPROVAL ( #247, 'NEURÈENÝ' ) ;
#251 = CARTESIAN_POINT ( 'NONE',  ( 0.000000000000000000, 0.000000000000000000, 0.000000000000000000 ) ) ;
#252 = VECTOR ( 'NONE', #152, 1000.000000000000000 ) ;
#253 = COORDINATED_UNIVERSAL_TIME_OFFSET ( 1, 0, .AHEAD. ) ;
#254 = DIRECTION ( 'NONE',  ( 0.000000000000000000, 0.000000000000000000, 1.000000000000000000 ) ) ;
#255 = CYLINDRICAL_SURFACE ( 'NONE', #178, 11.00000000000000000 ) ;
ENDSEC;
END-ISO-10303-21;
